Dream Theater - The Ytse Jam Chords & Tabs

 

The Ytse Jam Chords & Tabs

Dream Theater Chords & Tabs

Version: 1 Type: Bass Tab 0 ratings
1 star 2 stars 3 stars 4 stars 5 stars
comments

The Ytse Jam Bass Tab

   
THE YTSE JAM (Bassline)
As recorded by Dream Theater
(From the 1989 Album WHEN DREAM AND DAY UNITE)


Gtr I (E A D G) - 'Untitled'


 Intro
 4/4
  Gtr I
  W       W       W      W
|-4-----|-------|------|-3----|
|-2-----|-3-----|-2----|-1----|
|-------|-1-----|-0----|------|
|-------|-------|------|------|


  +W           +W           +W           +W
|-(3)--------|-(3)--------|-(3)--------|-(3)----||
|-(1)--------|-(1)--------|-(1)--------|-(1)----||
|------------|------------|------------|--------||
|------------|------------|------------|--------||


   Main Theme
    Q=126
   7/4
           ~~
     S  S  E E  S  S  E E  S  S  E  S  S  E  S  S  E  S  S  E
||------------------------------------------------------------|
||o-12-11-12-0-14-12-14-0-15-14-15-17-15-17-15-14-15-14-12-14-|
||o-----------------------------------------------------------|
||------------------------------------------------------------|


 11/8
         ~~
   S  S  E E  S  S  E  S  S  E  S  S  E  S S  E   4x
|------------15-14-15-14-12-14-12-10-12-10-9-10---||
|-12-11-12-0-------------------------------------o||
|------------------------------------------------o||
|-------------------------------------------------||


   7/4
           ~~
     S  S  E E  S  S  E E  S  S  E  S  S  E  S  S  E  S  S  E
||------------------------------------------------------------|
||o-12-11-12-0-14-12-14-0-15-14-15-17-15-17-15-14-15-14-12-14-|
||o-----------------------------------------------------------|
||------------------------------------------------------------|


 11/8
         ~~
   S  S  E E  S  S  E  S  S  E  S  S  E  S S  E
|------------15-14-15-14-12-14-12-10-12-10-9-10---||
|-12-11-12-0-------------------------------------o||
|------------------------------------------------o||
|-------------------------------------------------||


 Bridge
 3/4
  E S S E S S E E   E S S E S S S S E   E S S E S S E E
|-----------------|-------------------|-----------------|
|-----------------|-------------------|-----------------|
|-0-0-0-0-0-0-1---|-0-0-0-0-0-0-1-1-4-|-0-0-0-0-0-0-1---|
|---------------3-|-------------------|---------------3-|


  S S E E E E E   E S S E S S S S S S   E S S E S S S S S S
|---------------|---------------------|-----------------1-1-|
|---------0-2-3-|-2-2-2-2-2-2-3-2-0-0-|-2-2-2-2-2-2-3-3-----|
|-0-0-1-4-------|---------------------|---------------------|
|---------------|---------------------|---------------------|


  E S S E S S S S S S   S S S S S S S S S S S S
|---------------------|---------1-1-2-2-4-4-5-5-|
|-2-2-2-2-2-2-3-2-0-0-|-2-2-3-3-----------------|
|---------------------|-------------------------|
|---------------------|-------------------------|


  E S S E S S E E   E S S E S S E E   E S S E S S E E
|-----------------|-----------------|-----------------|
|-----------------|-----------------|-----------------|
|-0-0-0-0-0-0-1---|-0-0-0-0-0-0-1-4-|-0-0-0-0-0-0-1---|
|---------------3-|-----------------|---------------3-|


                  |-3-|   |-3-|         |-3-|   |-3-|
  E E E E E E   E S S S E S S S E E   E S S S E S S S E E
|-------------|---------------------|-------------------1-|
|-------0-2-3-|-2-2-2-2-2-2-2-2-3-0-|-2-2-2-2-2-2-2-2-3---|
|-0-1-4-------|---------------------|---------------------|
|-------------|---------------------|---------------------|


    |-3-|   |-3-|
  E S S S E S S S E E   E E E E E E
|---------------------|-----1-2-4-5-|
|-2-2-2-2-2-2-2-2-3-0-|-2-3---------|
|---------------------|-------------|
|---------------------|-------------|


 First Guitar Solo
  E S S E S S E E   E S S E S S E E   E S S E S S E E
|-----------------|-----------------|-----------------|
|-----------------|-----------------|-----------------|
|-0-x-0-0---0-1---|-0---0-0---0-1-4-|-0---0-0---0-1---|
|---------------3-|-----------------|---------------3-|


  E E E E E E   E S S E S S E E   E S S E S S E E
|-------------|-----------------|---------------1-|
|-------0-2-3-|-2-x-2-2---2-3-0-|-2---2-2---2-3---|
|-0-1-4-------|-----------------|-----------------|
|-------------|-----------------|-----------------|


  E S S E S S E E   E E E E E E
|-----------------|-----1-2-4-5-|
|-2---2-2---2-3-0-|-2-3---------|
|-----------------|-------------|
|-----------------|-------------|


  S S E +E  S S E E   S S  E  S  S  E  S S  E   S S E +E  S S E  S S
|-------------------|-------------------------|-----------------10-9--|
|-7---7-(7)-7-7-8-5-|-7-8-11-12-11-12-11-8-11-|-8---8-(8)-7-5-7-------|
|-------------------|-------------------------|-----------------------|
|-------------------|-------------------------|-----------------------|


                       ~~~~~~        ~
   E S S E S S Q   S S E  E  +E  S S E
|-10-9-7-9-7-6-7-|---------------------|
|----------------|---------------------|
|----------------|-7p6h7-(7)-(7)-8-7-8-|
|----------------|--------0--(0)-------|


   S S  E  S  S  E  S S  E   S S E S S E +E   S S
|--------------------------|-----------------------|
|--------------------------|-----------------10-9--|
|-11-8-11-12-11-12-11-8-11-|-8-7-8-7-6-7-(7)-------|
|--------------------------|-----------------------|

[ Tab from: http://www.guitartabs.cc/tabs/d/dream_theater/the_ytse_jam_btab.html ]
               ~
   E S S E S S Q   S S E +E  E S S E
|----------------|-------------------|
|-10-9-7-9-7-6-7-|-7-6-7-(7)---8p7h8-|
|----------------|-----------0-------|
|----------------|-------------------|


   S S  E  S  S  E  S S  E   S S E S S E +E   S S
|--------------------------|-----------------10-9--|
|-11-8-11-12-11-12-11-8-11-|-8-7-8-7-6-7-(7)-------|
|--------------------------|-----------------------|
|--------------------------|-----------------------|


   E S S E S S Q    S S E +E  E S S E    S S  E  S  S  E  S S  E
|-10-9-7-9-7-6-7--|-------------------|--------------------------|
|-----------------|-------------------|--------------------------|
|-----------------|-7-6-7-(7)---8-7-8-|-11-8-11-12-11-12-11-8-11-|
|-----------------|-----------0-------|--------------------------|


  S S E S S E +E   S S    E S S E S S Q
|----------------------|------------------|
|-----------------10-9-|-10-9-7-9-7-6-7---|
|-8-7-8-7-6-7-(7)------|------------------|
|----------------------|------------------|


   Main Theme
   7/4
           ~~
     S  S  E E  S  S  E E  S  S  E  S  S  E  S  S  E  S  S  E
||------------------------------------------------------------|
||o-12-11-12-0-14-12-14-0-15-14-15-17-15-17-15-14-15-14-12-14-|
||o-----------------------------------------------------------|
||------------------------------------------------------------|


 11/8
         ~~
   S  S  E E  S  S  E  S  S  E  S  S  E  S S  E
|------------15-14-15-14-12-14-12-10-12-10-9-10---||
|-12-11-12-0-------------------------------------o||
|------------------------------------------------o||
|-------------------------------------------------||


 Interlude
 7/4                               11/8
    ~~~~~~~~~~~~~~~~~~~~~~~~~~~~~~~~~~~~~
    Q.     Q.    Q    Q    Q   Q      Q.    Q.    Q   Q   E
|---------------------------------|--------15----14--12-----|
|-/12----/14----15------------10--|-/12------------------15-|
|-------------------/10--/12------|-------------------------|
|---------------------------------|-------------------------|


 7/4                               6/4
    ~~~~~~~~~~~~~~~~~~~~~~~~~~~~~
                                                           |--3--|
    Q.     Q.    Q    Q    Q   Q     E  Q   Q   Q   Q   E  S  S  S  E
|---------------------------------|----15--14--12--10--10-10h12p10-10----|
|-/12----/14----15------------10--|-12-----------------------------------|
|-------------------/10--/12------|--------------------------------------|
|---------------------------------|--------------------------------------|


 7/4                     5/4
  Q.   Q.   Q  Q  Q  Q    S S S S S S S S S S S S S S S S S S E
|-----------------------|----------------------------------------|
|-----------------------|-0-0-0-0-8-8-0-0-7-7-0-0-5-5-0-0-3-3----|
|-5----3-------------3--|-------------------------------------3--|
|-----------5--3--1-----|----------------------------------------|


 7/4                     5/4
  Q.   Q.   Q  Q  Q  Q    Q  E  S  S   E  S  S  E  S  S  E  S S
|-----------------------|------15-14--15-14-12-14-12-10-12-10-9-|
|-----------------------|---------------------------------------|
|-5----3-------------3--|-5-------------------------------------|
|-----------5--3--1-----|---------------------------------------|


 7/8
   E S S E S S E S S E
|-10-9-7-9-7-6-7-6-3-6---|
|------------------------|
|------------------------|
|------------------------|


 Break
  Q=174
 4/4           9/8
  Q    H.       Q  Q.   H
|-2-----------|------------|
|-------------|------------|
|-------------|-0----------|
|-------------|------------|


 4/4                               7/8
  S S S S S S S S S S S S S S S S   S S S S S S S S S S S S S S
|---------------------------------|-----------------2h3p2-------|
|---------------------------------|-3-3-3-3-2-2-2-2-------5-3-2-|
|-1-1-1-1-3-3-3-3-5-5-5-5-4-4-4-4-|-----------------------------|
|---------------------------------|-----------------------------|


 4/4           9/8
  Q   H   E E   Q  Q.   H
|-------------|------------|
|-------------|------------|
|-0---------1-|-0----------|
|-------------|------------|


   4/4                               7/8
    S S S S S S S S S S S S S S S S   S S S S S S S S S S S S S S
||----------------------------------|-----------------2h3p2-0------|
||o---------------------------------|-3-3-3-3-2-2-2-2---------3-2--|
||o-1-1-1-1-3-3-3-3-5-5-5-5-4-4-4-4-|------------------------------|
||----------------------------------|------------------------------|


  1.
 4/4                        9/8
  Q S S S S S S S S S S E    Q S S S S S S S S S S Q
|--------------------------|---------------------------||
|-------3-3-----2-2-----0--|-------3-3-----2-2-----0--o||
|-0-0-0-----0-0-----0-0----|-0-0-0-----0-0-----0-0----o||
|--------------------------|---------------------------||


  2.
 4/4                       9/8
  Q S S S S S S S S S S E   Q S S S S S S S S S S Q
|-------------------------|-------------------------|
|-------3-3-----2-2-------|-------3-3-----2-2-----0-|
|-0-0-0-----0-0-----0-0-1-|-0-0-0-----0-0-----0-0---|
|-------------------------|-------------------------|


 4/4                               15/8
  S S S S S S S S S S S S S S S S   S S S S  W      +Q    S S S S S S
|---------------------------------|-----------------------2h3p2-------|
|---------------------------------|---------14-----(14)-----------5-3-|
|-1-1-1-1-3-3-3-3-5-5-5-5-4-4-4-4-|-8-8-8-8---------------------------|
|---------------------------------|-----------------------------------|


   Keyboard Solo
   7/8    U7Mm       4/4
    Q E S S E S S E   H   E S S S S S S
||------------------|-------2h3p2-------|
||o-----------------|---------------5-3-|
||o-0-0-0-0-0-0-0-0-|-1-----------------|
||------------------|-------------------|


 7/8               4/4
  Q E S S E S S E   H    E S S S S S S  4x
|-----------------|--------2-3-2--------||
|---------------0-|-1--------------5-3-o||
|-0-0-0-0-0-0-0---|--------------------o||
|-----------------|---------------------||
Comments