Dream Theater - The Spirit Carries On Chords & Tabs

 

The Spirit Carries On Chords & Tabs

Dream Theater Chords & Tabs

Version: 1 Type: Bass Tab 0 ratings
1 star 2 stars 3 stars 4 stars 5 stars
comments

The Spirit Carries On Bass Tab

Song: The Spirit Carries On	
Artist: Dream Theater
Album: Metropolis PT2:Scenes From A Memory

Tabbed by Serena Di Iulio  ICQ: 38559568
Member of the Bass Tab Archive Tabbing Army ~
http://www.basstabarchive.com


Intro:

  0:44
G|-14------12-----11--9-----------------------------------------------
D|----14----------------------------9-11--12---11---9\-----5-------2--
A|--------------------------12---12-----------------------------------
E|-------------------------------------------------------------33-----
B|------------------------------------------------------------------------------------------11----16----16----------------------------------
-0---------12---12-14-------------------16-17-16---14\----------------
------12---------------------------------------------------2---5/12---
----------------------------------------------------------------------
--------------------------------------------------------------------------------------------------------------------------------------------
-12\-----5---5---7---7------------------------------------------------
-----------5-------7--------------------------------------------------
----------------------------------------------------------------------
----------------------------------------------------------------------


Verse:

----------------------------------------------------------------------
-------4----5-----------------------------------4----5----------------
--5-------------5-4------------------------5--------------5-4---------
-----------------------7----5----4----5--------------------------7----
--------------------------------------------------------------------------------------------------------------------------------------------
----------------------------------------------------------------------
----------------------------------------------------------------------
-5----4------5--------------------------------------------------------
--------5-------------------------------------------------------------


Chorus:

----------------------------------------7----------6----------4-------
-5--5--5-----5---5-------------7------7---7------7---7------4-----5---
----------5----5------------7------5----------4----------2------------
---------------------5--5-5-------------------------------------------
--------------------------------------------------------------------------------------------------------------------------------------------
-7--7--7---7----------------------------------------------------------
---------7----5--5--5---5---5---5---5---------------------------------
----------------------5---5---5---5-----------------------------------
----------------------------------------------------------------------


Bridge:
[ Tab from: http://www.guitartabs.cc/tabs/d/dream_theater/the_spirit_carries_on_btab.html ]
----------------------------------------------------------------------
----------7---4-----6-----5---5-4-------------------------------------
--7---6----------5-----7----------7---5-4-----------------------------
----------------------------------------------------------------------
----------------------------------------------------------------------


Guitar solo 1:

----------------------------------------------------------------------
---------------------------------------------9-9-9---9-----9----------
---------------------------------------------------9---9-9---9--------
--7-7-7-7-7-7-6-6-6-5-5-5-4-4-4-3-3-3-5-5-5---------------------------
--------------------------------------------------------------------------------------------------------------------------------------------
-------------------8-----8------------8------4------------------------
-----------------8---8-8---8--------8---8-------5---------------------
-7-7--7-7--6-6-6--------------6-6-6-------5--------4---5-7---0---1-2--
----------------------------------------------------------------------------------------------7--------6------------------------------------
----4-----------7-----7---7----7---7----------------------------------
--4-----------7-----5--------4---------2-----0-5----------------------
--------5-5-5------------------------------2--------3--5--7-7-7-7-9-9-
---------------------------------------------------------------------------------------------------------6-6-6-6-7-7-7-7-9------------------
------------------------7--9-9-9-9------------------------------------
------------------7--9-------------------------------------------3--2-
-9-9-10-10-10-10---------------------------------------3--2--0--------
-----------------------------------------------------------------------------2--------------------------------------------------------------
-----2----------------------------------------------------------------
-0--------------------------------------------------------------------
----------------------------------------------------------------------
----------------------------------------------------------------------


Verse x1
Chorus x1


Guitar Solo 2:
                                                                    x2
----------------------------------------------------------------------
---------------------5-4-------------------------5----5--7----7-------
--5----5--5----5--5------5---7---5----5--5----5-----5-------7---------
-----5-------5----------------------5-------5-------------------------
----------------------------------------------------------------------


Bass solo:

-----------------14-16-14---------------------------------19----------
------------12--------------12-------------------------19----19-------
-5------12------------------------10-9----------------------------17\-
------------------------------------------12------10------------------
-----------------------------------------------10-------------------------------------------------------------------------------------------
----------------------------------------------------------------------
-10---10-9--------------5---------------------------------------------
-------------12\----5-------------------------------------------------
----------------------------------------------------------------------
Comments