Dream Theater - The Silent Man Chords & Tabs

 

The Silent Man Chords & Tabs

Dream Theater Chords & Tabs

Version: 3 Type: Tab 0 ratings
1 star 2 stars 3 stars 4 stars 5 stars
comments

The Silent Man Tab

   
The silent man
by Dream Theater
[ Tab from: http://www.guitartabs.cc/tabs/d/dream_theater/the_silent_man_tab_ver_3.html ]
#----------------------------------PLEASE NOTE---------------------------------#
#This file is the author's own work and represents their interpretation of the #
#song. You may only use this file for private study, scholarship, or research. #
#------------------------------------------------------------------------------#
 
 
 
from: http://members.xoom.it/DreamTheater
E-mail: davidecostanzo@libero.it
 
 
 
 
     G5                 D/A
     Gtr.1(Acoustic)
E||-------3-------3-----2--|(2)-----2---------2------|
B||-------3-------3-----3--|(3)-----3---------3------|
G||4------0-------0-----2--|(2)-----2------2--2------|
D||4------0-------0--0--0--|(0)--0--0------0--0--0-0-|
A||------------------0--0--|(0)--0--0------0-----0-0-|
E||--3---------3-----------|-------------------------|
           A ques-tion well served,___          "Is
 
 
   A9/C#              C(9)                 Csus
   Gtr.1
E|-0-------0-------0-----|-----------------1--1--x-0-| 
B|-0-------0----0-----3--|(3)-----3----x-x-1--1--x-0-| 
G|-0-------0----0-----0--|(0)-----0----x-x-0--0--x-0-|
D|-2----2-------2-----2--|(2)-----2----x-x-3--3--x-0-| 
A|-4----4-------------3--|(3)-----3----x-x-3--3--x---| 
E|-----------------------|-----3---------------------|
   si - lence like__ a fe  -   ver?"
 
 
   G5                 D/A
   Gtr.1
E|------3------0------2--|(2)-----2---------2------| 
B|------3------3------3--|(3)-----3---------3--3-0-|
G|------0------0------2--|(2)-----2---------2--2-0-| 
D|------0------0----0-0--|(0)-----0------0--0--0---| 
A|------x---------0-0-0--|(0)--0---------0---------|
E|-3----3----------------|-------------------------|     
       "A voice nev-er heard?"________   "Or a
 
 
   A9/C#              C(9)                 Csus
   Gtr.1
E|-0-------0----0--0-----|-----------------1--1--x-0-|
B|-0-------0----0--0--3--|(3)-----3----x-x-1--1--x-0-| 
G|-0-------0----0--0--0--|(0)-----0----x-x-0--0--x-0-| 
D|-2----2-------------2--|(2)-----2----x-x-3--3--x-0-|
A|-4----4-------------3--|(3)-----3----x-x-3--3--x---|
E|-----------------------|-----3---------------------|
   mes-sage with no__ re-ceiv-er?"
 
 
   Em      Em(9)   Em       Am7
   Gtr.1
E|-0-------0-------0--0-x-|-0-------0-------0------| 
B|-0-------0-------0--0-x-|-1-------1-------1--1-1-| 
G|-0-------0-------0--0-x-|-0-------0-------0--0-0-|
D|-2-------4-------2--2---|-2----2-------2--2--2-2-| 
A|-2-------2--------------|-0----0-------0--0------| 
E|-0----0-------0---------|------------------------|
   Pray___ they won't ask.___                  Be -
 
 
   D(4)/A                   Em      Em(9)
   Gtr.1
E|-0-------------------0--|-0-------0-------0---0-0-| 
B|-1/3------3-------3--0--|-0-------0-------0---0-0-| 
G|-0--------0-------0-----|-0-------0-------0---0---| 
D|-2/4---4--4-------4-----|-2-------4-------4-------| 
A|-0-----0-------0--------|-2-------2-------2-------|
E|------------------------|-0----0-------0----------|
   hind    the_stained_glass____
 
 
   C2(#4)                   D/C
   Gtr.1
E|------------------------|-------------------------| 
B|-3-------3-------3--x-x-|-7-------7---------------|
G|-0-------0-------0--x-x-|-7-------7---------------| 
D|-4-------4-------4--x-x-|-7-------7---------------| 
A|-3----3-------3--3--x-x-|-x-------x---------------| 
E|------------------------|-8----8--8---------------|
    there's al-ways   one____ more  mask.__
 
 
   G5                 D/A
   Gtr.1
E|------3-------3-----2--|(2)-----2---------2------|
B|------3-------3-----3--|(3)-----3---------3------|
G|------0-------0-----2--|(2)-----2------2--2------|
D|------0-------0--0--0--|(0)--0--0------0--0--0-0-|
A|-----------------0--0--|(0)--0--0------0-----0-0-|
E|-3---------3-----------|-------------------------|
         Has man been a vic -  tim__         of his 
 
 
   A9/C#              C(9)                 Csus
   Gtr.1
E|-0-------0-------0-----|-----------------1--1--x-0-| 
B|-0-------0----0-----3--|(3)-----3----x-x-1--1--x-0-| 
G|-0-------0----0-----0--|(0)-----0----x-x-0--0--x-0-|
D|-2----2-------2-----2--|(2)-----2----x-x-3--3--x-0-| 
A|-4----4-------------3--|(3)-----3----x-x-3--3--x---| 
E|-----------------------|-----3---------------------|
   wom- an,      of his fath -  er?
 
 
   G5         G/B Gsus   D/A                     D(11)
   Gtr.1
E|------3--3-3-----------2--|(2)------------------------|
B|------3--3-3-3--3------3--|(3)-----3-----------3--x-x-| 
G|------0--0-0-0--0------2--|(2)-----2-----------0--x-x-|
D|------0--0---0--x--x-x-0--|(0)-----0--------4--4--x-x-| 
A|-------------2--3--x-x-0--|(0)--0-----0--5-----5--x-x-| 
E|-3------------------------|---------------------------| 
     If he e-lects not to both-er,_______   will he 
 
 
   A9/C#              C(9)                 Csus
   Gtr.1
E|-0-------0----0--0-----|-----------------1--1--x-0-|
B|-0-------0----0--0--3--|(3)-----3----x-x-1--1--x-0-| 
G|-0-------0----0--0--0--|(0)-----0----x-x-0--0--x-0-| 
D|-2----2-------------2--|(2)-----2----x-x-3--3--x-0-|
A|-4----4-------------3--|(3)-----3----x-x-3--3--x---|
E|-----------------------|-----3---------------------|
   suf- fo-cate_their faith?__ 
 
 
   Em      Em(9)   Em       Am7
   Gtr.1
E|-0-------0-------0--0-x-|-0-------0-------0------| 
B|-0-------0-------0--0-x-|-1-------1-------1--1-1-| 
G|-0-------0-------0--0-x-|-0-------0-------0--0-0-|
D|-2-------4-------2--2---|-2----2-------2--2--2-2-| 
A|-2-------2--------------|-0----0-------0--0------| 
E|-0----0-------0---------|------------------------|
   Des  -  p'rate_ to fall___                  be - 
 
 
   D(4)/A                   Em      Em(9)
   Gtr.1
E|-0-------------------0--|-0-------0-------0---0-0-| 
B|-1/3------3-------3--0--|-0-------0-------0---0-0-| 
G|-0--------0-------0-----|-0-------0-------0---0---| 
D|-2/4---4--4-------4-----|-2-------4-------4-------| 
A|-0-----0-------0--------|-2-------2-------2-------|
E|------------------------|-0----0-------0----------|
   hind    the_Great___Wall____________
 
 
   C2(#4)                   D/C
   Gtr.1
E|------------------------|-------------------------| 
B|-3-------3-------3--x-x-|-7-------7---------------|
G|-0-------0-------0--x-x-|-7-------7---------------| 
D|-4-------4-------4--x-x-|-7-------7---------------| 
A|-3----3-------3--3--x-x-|-x-------x---------------| 
E|------------------------|-8----8--8---------------|
     that  sep- a  -  rates__  us   all.___ 
 
 
   E         Esus               F#m11/E(Bass plays E)
   Gtr.1
   >         >         >        >         >         >
E|-0--0-0-0--0--0-0-0--0--0-0-|-0--0-0-0--0--0-0-0--0--0-0-|
B|-0--0-0-0--0--0-0-0--0--0-0-|-0--0-0-0--0--0-0-0--0--0-0-| 
G|-1--1-1-1--2--2-2-2--2--2-2-|-2--2-2-2--2--2-2-2--2--2-2-| 
D|-2--2-2-2--2--2-2-2--2--2-2-|-4--4-4-4--4--4-4-4--4--4-4-| 
A|-2--2-2-2--2--2-2-2--2--2-2-|-4--4-4-4--4--4-4-4--4--4-4-| 
E|-0--0-0-0--0--0-0-0--0--0-0-|-0--0-0-0--0--0-0-0--0--0-0-|
 | Gtr.2("Nashville" tuned acoustic)
 | >         >         >        >         >         >
E|-0--0-0-0--0--0-0-0--0--0-0-|-0--0-0-0--0--0-0-0--0--0-0-|
B|-0--0-0-0--0--0-0-0--0--0-0-|-0--0-0-0--0--0-0-0--0--0-0-| 
G|-1--1-1-1--2--2-2-2--2--2-2-|-2--2-2-2--2--2-2-2--2--2-2-| 
D|-2--2-2-2--2--2-2-2--2--2-2-|-4--4-4-4--4--4-4-4--4--4-4-| 
A|-2--2-2-2--2--2-2-2--2--2-2-|-4--4-4-4--4--4-4-4--4--4-4-| 
E|-0--0-0-0--0--0-0-0--0--0-0-|-0--0-0-0--0--0-0-0--0--0-0-|
 | Gtr.3(Elec.) clean w/chorus
E|--------0---------0---------|----------------------------|
B|----0---------0---------0---|(0)-------------------------| 
G|-1---------1---------1------|----------------------------| 
D|----------------------------|----------------------------| 
A|----------------------------|----------------------------| 
E|----------------------------|----------------------------| 
   When      there_is___  rea - son,                   To -
                                      (To-night_ I'm a-wake._
 
 
   A(9)/E                        B(11)/E       B(11)
   Gtr.1
   >         >         >        >         >         >
E|-0--0-0-0--0--0-0-0--0--0-0-|-0--0-0-0--0--0--0-0-0--0-0-|
B|-0--0-0-0--0--0-0-0--0--0-0-|-0--0-0-0--0--0--0-0-0--0-0-| 
G|-6--6-6-6--6--6-6-6--6--6-6-|-8--8-8-8--8--8--8-8-8--8-8-| 
D|-7--7-7-7--7--7-7-7--7--7-7-|-9--9-9-9--9--9--9-9-9--9-9-| 
A|-7--7-7-7--7--7-7-7--7--7-7-|-9--9-9-9--9--9--9-9-9--9-9-| 
E|-0--0-0-0--0--0-0-0--0--0-0-|-0--0-0-0--0--0--7-7-7--7-7-|
 | Gtr.2
 | >         >         >        >         >         >
E|-0--0-0-0--0--0-0-0--0--0-0-|-0--0-0-0--0--0--0-0-0--0-0-|
B|-0--0-0-0--0--0-0-0--0--0-0-|-0--0-0-0--0--0--0-0-0--0-0-| 
G|-6--6-6-6--6--6-6-6--6--6-6-|-8--8-8-8--8--8--8-8-8--8-8-| 
D|-7--7-7-7--7--7-7-7--7--7-7-|-9--9-9-9--9--9--9-9-9--9-9-| 
A|-7--7-7-7--7--7-7-7--7--7-7-|-9--9-9-9--9--9--9-9-9--9-9-| 
E|-0--0-0-0--0--0-0-0--0--0-0-|-0--0-0-0--0--0--7-7-7--7-7-|
 | Gtr.3
E|-----------0----------------|-0--------------------------|
B|--------0-------------------|-0--------------------------| 
G|----6-----------------------|-8--------------------------| 
D|-7--------------------------|-9--------------------------| 
A|----------------------------|----------------------------| 
E|----------------------------|----------------------------| 
   night        I'm    a-wake.___
   ____)                               (The si-lent    man._
 
 
 
   E         Esus      E        F#m11/E
   Gtr.1
   >         >         >        >         >         >
E|-0--0-0-0--0--0-0-0--0--0-0-|-0--0-0-0--0--0-0-0--0--0-0-|
B|-0--0-0-0--0--0-0-0--0--0-0-|-0--0-0-0--0--0-0-0--0--0-0-| 
G|-1--1-1-1--2--2-2-2--1--1-1-|-2--2-2-2--2--2-2-2--2--2-2-| 
D|-2--2-2-2--2--2-2-2--2--2-2-|-4--4-4-4--4--4-4-4--4--4-4-| 
A|-2--2-2-2--2--2-2-2--2--2-2-|-4--4-4-4--4--4-4-4--4--4-4-| 
E|-0--0-0-0--0--0-0-0--0--0-0-|-0--0-0-0--0--0-0-0--0--0-0-|
 | Gtr.2
 | >         >         >        >         >         >
E|-0--0-0-0--0--0-0-0--0--0-0-|-0--0-0-0--0--0-0-0--0--0-0-|
B|-0--0-0-0--0--0-0-0--0--0-0-|-0--0-0-0--0--0-0-0--0--0-0-| 
G|-1--1-1-1--2--2-2-2--2--2-2-|-2--2-2-2--2--2-2-2--2--2-2-| 
D|-2--2-2-2--2--2-2-2--2--2-2-|-4--4-4-4--4--4-4-4--4--4-4-| 
A|-2--2-2-2--2--2-2-2--2--2-2-|-4--4-4-4--4--4-4-4--4--4-4-| 
E|-0--0-0-0--0--0-0-0--0--0-0-|-0--0-0-0--0--0-0-0--0--0-0-|
 | Gtr.3
E|--------0---------0---------|----------------------------|
B|----0---------0---------0---|----------------------------| 
G|-1---------1---------4------|-2--------------------------| 
D|----------------------------|----------------------------| 
A|----------------------------|----------------------------| 
E|----------------------------|----------------------------| 
   When      there_no___  an  - swer.               Ar-rive_  
   ___)
 
 
   A(9)/E       B(11)/E B(11)    E         E(9)  E  E(9)
   Gtr.1
   >      >      >      >        >         >        >
E|-0--0-0-0--0-0-0--0-0-0--0-0-|-0---0-0-0-0---0----0--0-0-|
B|-0--0-0-0--0-0-0--0-0-0--0-0-|-0---0-0-0-0---0----0--0-0-|
G|-6--6-6-6--6-6-8--8-8-8--8-8-|-1---1-1-1-1---1----1--1-1-| 
D|-7--7-7-7--7-7-9--9-9-9--9-9-|-2---2-2-2-4---4----4--4-4-| 
A|-7--7-7-7--7-7-9--9-9-9--9-9-|-2---2-2-2-2---2----2--2-2-| 
E|-0--0-0-0--0-0-0--0-0-7--7-7-|-0---0-0-0-0---0-0--0--0-0-|
 | Gtr.2
 | >      >      >      >        >         >        >
E|-0--0-0-0--0-0-0--0-0-0--0-0-|-0---0-0-0-0---0----0--0-0-|
B|-0--0-0-0--0-0-0--0-0-0--0-0-|-0---0-0-0-0---0----0--0-0-|
G|-6--6-6-6--6-6-8--8-8-8--8-8-|-1---1-1-1-1---1----1--1-1-| 
D|-7--7-7-7--7-7-9--9-9-9--9-9-|-2---2-2-2-4---4----4--4-4-| 
A|-7--7-7-7--7-7-9--9-9-9--9-9-|-2---2-2-2-2---2----2--2-2-| 
E|-0--0-0-0--0-0-0--0-0-7--7-7-|-0---0-0-0-0---0-0--0--0-0-|
 | Gtr.3
E|-----------0-------------0---|(0)------------------------|
B|--------0-------------0------|---------------------------| 
G|----6-------------8----------|---------------------------| 
D|-7-------------9-------------|---------------------------| 
A|-----------------------------|---------------------------| 
E|-----------------------------|---------------------------| 
   ____   the si -  lent   man.___
 
 
   E         Esus      E        F#m11/E
   Gtr.1
   >         >         >        >         >         >
E|-0--0-0-0--0--0-0-0--0--0-0-|-0--0-0-0--0--0-0-0--0--0-0-|
B|-0--0-0-0--0--0-0-0--0--0-0-|-0--0-0-0--0--0-0-0--0--0-0-| 
G|-1--1-1-1--2--2-2-2--1--1-1-|-2--2-2-2--2--2-2-2--2--2-2-| 
D|-2--2-2-2--2--2-2-2--2--2-2-|-4--4-4-4--4--4-4-4--4--4-4-| 
A|-2--2-2-2--2--2-2-2--2--2-2-|-4--4-4-4--4--4-4-4--4--4-4-| 
E|-0--0-0-0--0--0-0-0--0--0-0-|-0--0-0-0--0--0-0-0--0--0-0-|
 | Gtr.2
 | >         >         >        >         >         >
E|-0--0-0-0--0--0-0-0--0--0-0-|-0--0-0-0--0--0-0-0--0--0-0-|
B|-0--0-0-0--0--0-0-0--0--0-0-|-0--0-0-0--0--0-0-0--0--0-0-| 
G|-1--1-1-1--2--2-2-2--1--1-1-|-2--2-2-2--2--2-2-2--2--2-2-| 
D|-2--2-2-2--2--2-2-2--2--2-2-|-4--4-4-4--4--4-4-4--4--4-4-| 
A|-2--2-2-2--2--2-2-2--2--2-2-|-4--4-4-4--4--4-4-4--4--4-4-| 
E|-0--0-0-0--0--0-0-0--0--0-0-|-0--0-0-0--0--0-0-0--0--0-0-|
 | Gtr.3
E|--------0---------0---------|--------0---------0-----0---|
B|----0---------0---------0---|----0---------0---------0---| 
G|-1---------1---------1------|-2---------2---------2------| 
D|----------------------------|----------------------------| 
A|----------------------------|----------------------------| 
E|----------------------------|----------------------------| 
   If        there_ is___ bal - ance,                  to -
                                      (To-night_ I'm a-wake._
 
 
   A(9)/E                        B(11)/E            B(11)
   Gtr.1
   >         >         >        >         >         >
E|-0--0-0-0--0--0-0-0--0--0-0-|-0--0-0-0--0--0-0-0--0--0-0-|
B|-0--0-0-0--0--0-0-0--0--0-0-|-0--0-0-0--0--0-0-0--0--0-0-| 
G|-6--6-6-6--6--6-6-6--6--6-6-|-8--8-8-8--8--8-8-8--8--8-8-| 
D|-7--7-7-7--7--7-7-7--7--7-7-|-9--9-9-9--9--9-9-9--9--9-9-| 
A|-7--7-7-7--7--7-7-7--7--7-7-|-9--9-9-9--9--9-9-9--9--9-9-| 
E|-0--0-0-0--0--0-0-0--0--0-0-|-0--0-0-0--0--0-0-0--7--7-7-|
 | Gtr.2
 | >         >         >        >         >         >
E|-0--0-0-0--0--0-0-0--0--0-0-|-0--0-0-0--0--0-0-0--0--0-0-|
B|-0--0-0-0--0--0-0-0--0--0-0-|-0--0-0-0--0--0-0-0--0--0-0-| 
G|-6--6-6-6--6--6-6-6--6--6-6-|-8--8-8-8--8--8-8-8--8--8-8-| 
D|-7--7-7-7--7--7-7-7--7--7-7-|-9--9-9-9--9--9-9-9--9--9-9-| 
A|-7--7-7-7--7--7-7-7--7--7-7-|-9--9-9-9--9--9-9-9--9--9-9-| 
E|-0--0-0-0--0--0-0-0--0--0-0-|-0--0-0-0--0--0-0-0--7--7-7-|
 | Gtr.3
E|--------0---------0-----0---|--------0---------0-----0---|
B|----0---------0-------------|----0---------0-------------| 
G|-6---------6---------6------|-8---------8---------8------| 
D|----------------------------|----------------------------| 
A|----------------------------|----------------------------| 
E|----------------------------|----------------------------| 
   night        he's   a-wake.____________
   ____)                               (The si-lent    man._
 
 
   E         Esus      E        F#m11/E
   Gtr.1
   >         >         >        >         >         >
E|-0--0-0-0--0--0-0-0--0--0-0-|-0--0-0-0--0--0-0-0--0--0-0-|
B|-0--0-0-0--0--0-0-0--0--0-0-|-0--0-0-0--0--0-0-0--0--0-0-| 
G|-1--1-1-1--2--2-2-2--1--1-1-|-2--2-2-2--2--2-2-2--2--2-2-| 
D|-2--2-2-2--2--2-2-2--2--2-2-|-4--4-4-4--4--4-4-4--4--4-4-| 
A|-2--2-2-2--2--2-2-2--2--2-2-|-4--4-4-4--4--4-4-4--4--4-4-| 
E|-0--0-0-0--0--0-0-0--0--0-0-|-0--0-0-0--0--0-0-0--0--0-0-|
 | Gtr.2
 | >         >         >        >         >         >
E|-0--0-0-0--0--0-0-0--0--0-0-|-0--0-0-0--0--0-0-0--0--0-0-|
B|-0--0-0-0--0--0-0-0--0--0-0-|-0--0-0-0--0--0-0-0--0--0-0-| 
G|-1--1-1-1--2--2-2-2--2--2-2-|-2--2-2-2--2--2-2-2--2--2-2-| 
D|-2--2-2-2--2--2-2-2--2--2-2-|-4--4-4-4--4--4-4-4--4--4-4-| 
A|-2--2-2-2--2--2-2-2--2--2-2-|-4--4-4-4--4--4-4-4--4--4-4-| 
E|-0--0-0-0--0--0-0-0--0--0-0-|-0--0-0-0--0--0-0-0--0--0-0-|
 | Gtr.3
E|--------0---------0---------|--------0---------0-----0---|
B|----0---------0---------0---|----0---------0---------0---| 
G|-1---------2---------4------|-2---------2---------2------| 
D|----------------------------|----------------------------| 
A|----------------------------|----------------------------| 
E|----------------------------|----------------------------| 
          If they__have to suf- fer,____          there lies__
   ___)
 
 
   A(9)/E        B(11)/E         E         E(9)   E  E(9) D5/A
   Gtr.1
   >      >      >      >        >         >         >
E|-0--0-0-0--0-0-0--0-0-0--0-0-|-0---0-0-0-0--0-0----0------|
B|-0--0-0-0--0-0-0--0-0-0--0-0-|-0---0-0-0-0--0-0----0------|
G|-6--6-6-6--6-6-8--8-8-8--8-8-|-1---1-1-1-1--1-1----1------| 
D|-7--7-7-7--7-7-9--9-9-9--9-9-|-2---2-2-2-4--4-4----4--0-0-| 
A|-7--7-7-7--7-7-9--9-9-9--9-9-|-2---2-2-2-2--2-2----2--0-0-| 
E|-0--0-0-0--0-0-0--0-0-0--0-0-|-0---0-0-0-0--0-0-0--0------|
 | Gtr.2
 | >      >      >      >        >         >         >
E|-0--0-0-0--0-0-0--0-0-0--0-0-|-0---0-0-0-0--0-0----0------|
B|-0--0-0-0--0-0-0--0-0-0--0-0-|-0---0-0-0-0--0-0----0------|
G|-6--6-6-6--6-6-8--8-8-8--8-8-|-1---1-1-1-1--1-1----1------| 
D|-7--7-7-7--7-7-9--9-9-9--9-9-|-2---2-2-2-4--4-4----4--0-0-| 
A|-7--7-7-7--7-7-9--9-9-9--9-9-|-2---2-2-2-2--2-2----2--0-0-| 
E|-0--0-0-0--0-0-0--0-0-0--0-0-|-0---0-0-0-0--0-0-0--0------|
 | Gtr.3
E|-----------0-------------0---|(0)-------------------------|
B|--------0-------------0------|----------------------------| 
G|----6-------------8----------|----------------------------| 
D|-7-------------9-------------|----------------------------| 
A|-----------------------------|----------------------------| 
E|-----------------------------|----------------------------| 
   ____   the si -  lent   man.___
 
 
   D/A     D2   D      Bb/D                        G/D
   Gtr.1
   >       >    >      >        >
E|-2-------0----2------0--|(0)--1----1-1-1--0------7-7-| 
B|-3-------3----3------3--|(3)--3----3-3-3--3--3-0-8-8-|
G|-2-------2----2------3--|(3)--3----3-3-3--3--3-0-7-7-| 
D|-0----0--0-------0-0-0--|(0)--0----0---0--0--0---0---|
A|-0----0----------0-0----|----------------------------| 
E|------------------------|----------------------------| 
 | Gtr.2
 | >       >    >      >        >
E|-2-------0----2------0--|(0)--1----1-1-1--0------7-7-| 
B|-3-------3----3------3--|(3)--3----3-3-3--3--3-0-8-8-|
G|-2-------2----2------3--|(3)--3----3-3-3--3--3-0-7-7-| 
D|-0----0--0-------0-0-0--|(0)--0----0---0--0--0---0---|
A|-0----0----------0-0----|----------------------------| 
E|------------------------|----------------------------|
 
 
            D            C/D      G(9)/A G6(11)/A    G6/A
   Gtr.1
   >            >        >                  >
E|-7--------5-5-5-----(3)3--|(3)--3------0--0----0-0-0--| 
B|-8--------7-7-7------5-5--|(5)--0------0--0----0-0-3--|
G|-7------7-7-7-7------5-5--|(5)--5--5-5-5--5----5-5-4--|
D|-0----0-0-0---0----0---0--|(0)--0--0-0-5--5--------5--|
A|------0------------0------|-----0------0--0--------0--|
E|--------------------------|---------------------------|
 | Gtr.2
 | >            >        >                  >
E|-7--------5-5-5-----(3)3--|(3)--3------0--0----0-0-0--| 
B|-8--------7-7-7------5-5--|(5)--0------0--0----0-0-3--|
G|-7------7-7-7-7------5-5--|(5)--5--5-5-5--5----5-5-4--|
D|-0----0-0-0---0----0---0--|(0)--0--0-0-5--5--------5--|
A|------0------------0------|-----0------0--0--------0--|
E|--------------------------|---------------------------|
 
 
                   D/F#               Bbsus2
    Gtr.1          >                  >
E|--0----0--x---|---------------------1--|
B|--3----3--x---|--3------------------1--|
G|2-4----4--x---|4-2------------------3--|
D|4-5----5--x---|4-0------------------3--|
A|--0----0------|--x---------------0--1--|
E|------------0-|--2----2--0--2--3-------|
 |  Gtr.2          >                  >
E|--0----0--x---|---------------------1--|
B|--3----3--x---|--3------------------1--|
G|2-4----4--x---|4-2------------------3--|
D|4-5----5--x---|4-0------------------3--|
A|--0----0------|--x---------------0--1--|
E|------------0-|--2----2--0--2--3-------|
 
 
       Bb2    Csus C      G/D            D            C/D
   Gtr.1
       >      >    >            >            >        >
E|(1)--1------1----0--0-0-7-7-|-7--------5-5-5--------3--|
B|(1)--1------1----1--1-1-8-8-|-8--------7-7-7--------5--| 
G|(3)--3--3-x-0----0--0-0-7-7-|-7--------7-7-7--------5--| 
D|(3)--3--3-x-3----2--2---0---|-0----0-0-0---0----0-0-0--| 
A|(1)--1--1-x-3----3--3-------|--------0----------0-0----| 
E|----------------------------|--------------------------| 
 | Gtr.2
 |     >      >    >            >            >        >
E|(1)--1------1----0--0-0-7-7-|-7--------5-5-5--------3--|
B|(1)--1------1----1--1-1-8-8-|-8--------7-7-7--------5--| 
G|(3)--3--3-x-0----0--0-0-7-7-|-7--------7-7-7--------5--| 
D|(3)--3--3-x-3----2--2---0---|-0----0-0-0---0----0-0-0--| 
A|(1)--1--1-x-3----3--3-------|--------0----------0-0----| 
E|----------------------------|--------------------------|
 
 
       G(9)/A G6(11)/A    G6/A
   Gtr.1
E|(3)--3------0--0----0-0-0--|--0----0--x---| 
B|(5)--0------0--0----0-0-3--|--3----3--x---| 
G|(5)--5--5-5-5--5----5-5-4--|2-4----4--x---| 
D|(0)--0--0-0-5--5--------5--|4-5----5--x---| 
A|-----0------0--0--------0--|--0----0------| 
E|---------------------------|------------0-| 
 | Gtr.2
E|(3)--3------0--0----0-0-0--|--0----0--x---| 
B|(5)--0------0--0----0-0-3--|--3----3--x---| 
G|(5)--5--5-5-5--5----5-5-4--|2-4----4--x---| 
D|(0)--0--0-0-5--5--------5--|4-5----5--x---| 
A|-----0------0--0--------0--|--0----0------| 
E|---------------------------|------------0-|
 
 
    G           G/B Gsus   D5/A                D
    Gtr.1               *Tap guitar body
    >           >  >    >  >           >
E|-------3--3-----------------|---------------------------------| 
B|-------3--3-3-3--3-------3--|(3)-----3----------------3---3-0-| 
G|4------0--0-0-0--0-------2--|(2)-----2----------------0---0-0-| 
D|4------0--0-0-0--x-------0--|(0)--0--0-----------4----4---4-0-| 
A|-------x--x---2--3-------0--|(0)--0--0-------5----------------| 
E|--3----3--3-----------*-----|---------------------------------| 
 |  Gtr.4(Nylon str.acous.)
 |       >         __3__   >~~~~~~~~~          >   >   __3__  >
E|----------------------------|---------------------------------| 
B|--------------8--7^8^7------|-----------10--12--10------------| 
G|4---------7-9---------9--7--|(7)---7-9/11--11--11--11\9^7-7^9-| 
D|4------7-9------------------|----------------------------9----| 
A|----------------------------|---------------------------------| 
E|----------------------------|---------------------------------| 
 
 
 
   A9/C#                     C(9)                 Csus
   Gtr.1              
   >                         >           >           >
E|----------------0------0-0----|-----------------1--1------| 
B|-0-----0-----0--0------0-0-3--|(3)-----3----x-x-1--1------| 
G|-0-----0-----0--0------0-0-0--|(0)-----0----x-0-0--0------| 
D|-2--2--2--2--2--2------2---2--|(2)--2--2----x-x-3--3------| 
A|-4--4-----4--4-------------3--|(3)--3--3----x-x-3--3------| 
E|------------------------------|---------------------------| 
 | Gtr.4                     >                  >  >  > > >
 |~~~~            __3__                      ___3___ ___3___ 
E|-------------9--7^9^7--5------|---------------------------| 
B|---------------------------8--|(8)------------6--6--------| 
G|(9)-------6-------------------|-------------5^7--5--------| 
D|------------7-----------------|-------------------7\5^3\2-| 
A|------------------------------|---------------------------| 
E|------------------------------|---------------------------| 
                                                         Sss-
 
   Em9                      Am7
   Gtr.1
   >        >               >        >
E|------------------------|-------------------------| 
B|------------------------|----------1--------------| 
G|----------0-------------|-------0--------0--------| 
D|-------4-------4--------|----2--------------2-----|
A|----2-------------2-----|-0-----------0--------0--|
E|-0-------------------0--|-------------------------| 
 | Gtr.4        >                        Gtr.4 tacet
E|------------------------|-------------------------| 
B|------------------------|-------------------------| 
G|------------------------|-------------------------| 
D|------------------------|-------------------------|
A|------------------------|-------------------------|
E|-0----------------------|-------------------------|
   sin   with-out__de - cei - vers,__            a
 
 
 
   Gtr.1
    >            >             >       >        >
E|---------------------------|--------------------------------|
B|-----3------------7--------|---------8--------7-\5-------3--|
G|--------0------------0-----|--------------------------------|
D|2/4----------4/7--------7--|----7/9-(9)--9\7-(7)\5--2/4-----|
A|-(0)-------0---------------|--------------------------------|
E|---------------------------|-0------------------------------|
    God_with no___  be  - liev -  ers.__              I   could
 
 
   C #11/9                 D/C
   Gtr.1
E|----------0------------|------------------x-x-| 
B|----------3----3--3----|----------7----7--x-x-|
G|-------0-------0--0----|-------7--7----7--x-x-| 
D|----4-------------4----|----7-----7----7------|
A|-3---------------------|----------------------|
E|-----------------------|-8-------------8------|
 | Gtr.3                               w/bar                 
 |                                     ~~~~~~~~~
E|----------0------------|----------------------| 
B|----------3------------|----------7-----------| 
G|-------0---------------|-------7--------------|
D|----4------------------|----7-----------------|
A|-3---------------------|----------------------|
E|-----------------------|-8--------------------|
   sail by__on the winds____  of    si-lence and
 
 
 
   B5   Bsus                Em
   Gtr.1
   >       >
E|---------0-------0--x-x-|-0-------0-------0----| 
B|---------0-------0--x-x-|-0-------0-------0----| 
G|---------6-------6------|-0-------0-------0----| 
D|------------------------|-2-------2-------2----| 
A|-9------------9---------|-2--------------------| 
E|-7----7-------7---------|-0----0-------0-------|
 | Gtr.3                   harm.w/bar                 
 |                          ~~~~~~~~~~~~~~~~~~~~~
E|---------0--------------|12--------------------| 
B|---------4--------------|12--------------------| 
G|---------4--------------|12--------------------|
D|------------------------|----------------------|
A|-2----------------------|----------------------|
E|------------------------|----------------------|
   may- be they_won't no - tice.         But this
 
 
 
   C(9)                  D2 D
   Gtr.1                                                 >
E|----------------------|-0^2------------------|(2)---------------|
B|-3-------3-------3----|-3--------------------|(3)---------------| 
G|-0-------0-------0----|-2--------------------|(2)---------------| 
D|-2-------2-------2----|-0--------------------|(0)---------------| 
A|-3----3-------3-------|----------------------|------------------| 
E|----------------------|----------------------|------------------|
 | Gtr.3                                                 >
 | ~~~~~~~~~~~~~~~~~~~~~~~~~~~~~~~~~~~~~~~~~~~~~~~~~~~~~~~~~~~~~~~
E|(12)------------------|(12)------------------|(12)--------------| 
B|(12)------------------|(12)------------------|(12)--------------| 
G|(12)------------------|(12)------------------|(12)--------------|
D|----------------------|----------------------|------------------|
A|----------------------|----------------------|------------------|
E|----------------------|----------------------|------------------|
   time, I think_it'd be  bet-ter if I swim._______
 
 
   E         Esus               F#m11/E(Bass plays E)
   Gtr.1
   >         >         >        >         >         >
E|-0--0-0-0--0--0-0-0--0--0-0-|-0--0-0-0--0--0-0-0--0--0-0-|
B|-0--0-0-0--0--0-0-0--0--0-0-|-0--0-0-0--0--0-0-0--0--0-0-| 
G|-1--1-1-1--2--2-2-2--2--2-2-|-2--2-2-2--2--2-2-2--2--2-2-| 
D|-2--2-2-2--2--2-2-2--2--2-2-|-4--4-4-4--4--4-4-4--4--4-4-| 
A|-2--2-2-2--2--2-2-2--2--2-2-|-4--4-4-4--4--4-4-4--4--4-4-| 
E|-0--0-0-0--0--0-0-0--0--0-0-|-0--0-0-0--0--0-0-0--0--0-0-|
 | Gtr.2
 | >         >         >        >         >         >
E|-0--0-0-0--0--0-0-0--0--0-0-|-0--0-0-0--0--0-0-0--0--0-0-|
B|-0--0-0-0--0--0-0-0--0--0-0-|-0--0-0-0--0--0-0-0--0--0-0-| 
G|-1--1-1-1--2--2-2-2--2--2-2-|-2--2-2-2--2--2-2-2--2--2-2-| 
D|-2--2-2-2--2--2-2-2--2--2-2-|-4--4-4-4--4--4-4-4--4--4-4-| 
A|-2--2-2-2--2--2-2-2--2--2-2-|-4--4-4-4--4--4-4-4--4--4-4-| 
E|-0--0-0-0--0--0-0-0--0--0-0-|-0--0-0-0--0--0-0-0--0--0-0-|
 | Gtr.3
E|--------0---------0---------|----------------------------|
B|----0---------0---------0---|(0)-------------------------| 
G|-1---------1---------1------|----------------------------| 
D|----------------------------|----------------------------| 
A|----------------------------|----------------------------| 
E|----------------------------|----------------------------| 
   When      there_is___  rea - son,                   To -
                                      (To-night_ I'm a-wake._
 
 
   A(9)/E                        B(11)/E       B(11)
   Gtr.1
   >         >         >        >         >         >
E|-0--0-0-0--0--0-0-0--0--0-0-|-0--0-0-0--0--0--0-0-0--0-0-|
B|-0--0-0-0--0--0-0-0--0--0-0-|-0--0-0-0--0--0--0-0-0--0-0-| 
G|-6--6-6-6--6--6-6-6--6--6-6-|-8--8-8-8--8--8--8-8-8--8-8-| 
D|-7--7-7-7--7--7-7-7--7--7-7-|-9--9-9-9--9--9--9-9-9--9-9-| 
A|-7--7-7-7--7--7-7-7--7--7-7-|-9--9-9-9--9--9--9-9-9--9-9-| 
E|-0--0-0-0--0--0-0-0--0--0-0-|-0--0-0-0--0--0--7-7-7--7-7-|
 | Gtr.2
 | >         >         >        >         >         >
E|-0--0-0-0--0--0-0-0--0--0-0-|-0--0-0-0--0--0--0-0-0--0-0-|
B|-0--0-0-0--0--0-0-0--0--0-0-|-0--0-0-0--0--0--0-0-0--0-0-| 
G|-6--6-6-6--6--6-6-6--6--6-6-|-8--8-8-8--8--8--8-8-8--8-8-| 
D|-7--7-7-7--7--7-7-7--7--7-7-|-9--9-9-9--9--9--9-9-9--9-9-| 
A|-7--7-7-7--7--7-7-7--7--7-7-|-9--9-9-9--9--9--9-9-9--9-9-| 
E|-0--0-0-0--0--0-0-0--0--0-0-|-0--0-0-0--0--0--7-7-7--7-7-|
 | Gtr.3
E|-----------0------------0---|-0--------------------------|
B|--------0---------2--0------|-0--------------------------| 
G|----6-----------------------|-8--------------------------| 
D|-7--------------------------|-9--------------------------| 
A|----------------------------|----------------------------| 
E|----------------------------|----------------------------| 
   night        I'm    a-wake.___
   ____)                               (The si-lent    man._
 
 
 
   E         Esus      E        F#m11/E
   Gtr.1
   >         >         >        >         >         >
E|-0--0-0-0--0--0-0-0--0--0-0-|-0--0-0-0--0--0-0-0--0--0-0-|
B|-0--0-0-0--0--0-0-0--0--0-0-|-0--0-0-0--0--0-0-0--0--0-0-| 
G|-1--1-1-1--2--2-2-2--1--1-1-|-2--2-2-2--2--2-2-2--2--2-2-| 
D|-2--2-2-2--2--2-2-2--2--2-2-|-4--4-4-4--4--4-4-4--4--4-4-| 
A|-2--2-2-2--2--2-2-2--2--2-2-|-4--4-4-4--4--4-4-4--4--4-4-| 
E|-0--0-0-0--0--0-0-0--0--0-0-|-0--0-0-0--0--0-0-0--0--0-0-|
 | Gtr.2
 | >         >         >        >         >         >
E|-0--0-0-0--0--0-0-0--0--0-0-|-0--0-0-0--0--0-0-0--0--0-0-|
B|-0--0-0-0--0--0-0-0--0--0-0-|-0--0-0-0--0--0-0-0--0--0-0-| 
G|-1--1-1-1--2--2-2-2--2--2-2-|-2--2-2-2--2--2-2-2--2--2-2-| 
D|-2--2-2-2--2--2-2-2--2--2-2-|-4--4-4-4--4--4-4-4--4--4-4-| 
A|-2--2-2-2--2--2-2-2--2--2-2-|-4--4-4-4--4--4-4-4--4--4-4-| 
E|-0--0-0-0--0--0-0-0--0--0-0-|-0--0-0-0--0--0-0-0--0--0-0-|
 | Gtr.3
E|--------0---------0---------|----------------------------|
B|----0---------0---------0---|----------------------------| 
G|-1---------1---------4------|-2--------------------------| 
D|----------------------------|----------------------------| 
A|----------------------------|----------------------------| 
E|----------------------------|----------------------------| 
   When      there_no___  an  - swer.               Ar-rive_  
   ___)
 
 
   A(9)/E       B(11)/E B(11)    E         E(9)  E  E(9)
   Gtr.1
   >      >      >      >        >         >        >
E|-0--0-0-0--0-0-0--0-0-0--0-0-|-0---0-0-0-0---0----0--0-0-|
B|-0--0-0-0--0-0-0--0-0-0--0-0-|-0---0-0-0-0---0----0--0-0-|
G|-6--6-6-6--6-6-8--8-8-8--8-8-|-1---1-1-1-1---1----1--1-1-| 
D|-7--7-7-7--7-7-9--9-9-9--9-9-|-2---2-2-2-4---4----4--4-4-| 
A|-7--7-7-7--7-7-9--9-9-9--9-9-|-2---2-2-2-2---2----2--2-2-| 
E|-0--0-0-0--0-0-0--0-0-7--7-7-|-0---0-0-0-0---0-0--0--0-0-|
 | Gtr.2
 | >      >      >      >        >         >        >
E|-0--0-0-0--0-0-0--0-0-0--0-0-|-0---0-0-0-0---0----0--0-0-|
B|-0--0-0-0--0-0-0--0-0-0--0-0-|-0---0-0-0-0---0----0--0-0-|
G|-6--6-6-6--6-6-8--8-8-8--8-8-|-1---1-1-1-1---1----1--1-1-| 
D|-7--7-7-7--7-7-9--9-9-9--9-9-|-2---2-2-2-4---4----4--4-4-| 
A|-7--7-7-7--7-7-9--9-9-9--9-9-|-2---2-2-2-2---2----2--2-2-| 
E|-0--0-0-0--0-0-0--0-0-7--7-7-|-0---0-0-0-0---0-0--0--0-0-|
 | Gtr.3
E|-----------0-------------0---|(0)------------------------|
B|--------0-------------0------|---------------------------| 
G|----6-------------8----------|---------------------------| 
D|-7-------------9-------------|---------------------------| 
A|-----------------------------|---------------------------| 
E|-----------------------------|---------------------------| 
   ____   the si -  lent   man.___
 
 
   E         Esus      E        F#m11/E
   Gtr.1
   >         >         >        >         >         >
E|-0--0-0-0--0--0-0-0--0--0-0-|-0--0-0-0--0--0-0-0--0--0-0-|
B|-0--0-0-0--0--0-0-0--0--0-0-|-0--0-0-0--0--0-0-0--0--0-0-| 
G|-1--1-1-1--2--2-2-2--1--1-1-|-2--2-2-2--2--2-2-2--2--2-2-| 
D|-2--2-2-2--2--2-2-2--2--2-2-|-4--4-4-4--4--4-4-4--4--4-4-| 
A|-2--2-2-2--2--2-2-2--2--2-2-|-4--4-4-4--4--4-4-4--4--4-4-| 
E|-0--0-0-0--0--0-0-0--0--0-0-|-0--0-0-0--0--0-0-0--0--0-0-|
 | Gtr.2
 | >         >         >        >         >         >
E|-0--0-0-0--0--0-0-0--0--0-0-|-0--0-0-0--0--0-0-0--0--0-0-|
B|-0--0-0-0--0--0-0-0--0--0-0-|-0--0-0-0--0--0-0-0--0--0-0-| 
G|-1--1-1-1--2--2-2-2--1--1-1-|-2--2-2-2--2--2-2-2--2--2-2-| 
D|-2--2-2-2--2--2-2-2--2--2-2-|-4--4-4-4--4--4-4-4--4--4-4-| 
A|-2--2-2-2--2--2-2-2--2--2-2-|-4--4-4-4--4--4-4-4--4--4-4-| 
E|-0--0-0-0--0--0-0-0--0--0-0-|-0--0-0-0--0--0-0-0--0--0-0-|
 | Gtr.3
E|--------0---------0---------|--------0---------0-----0---|
B|----0---------0---------0---|----0---------0---------0---| 
G|-1---------1---------1------|-2---------2---------2------| 
D|----------------------------|----------------------------| 
A|----------------------------|----------------------------| 
E|----------------------------|----------------------------| 
   If        there_ is___ bal - ance,                  to -
                                      (To-night_ I'm a-wake._
 
 
   A(9)/E                        B(11)/E            B(11)
   Gtr.1
   >         >         >        >         >         >
E|-0--0-0-0--0--0-0-0--0--0-0-|-0--0-0-0--0--0-0-0--0--0-0-|
B|-0--0-0-0--0--0-0-0--0--0-0-|-0--0-0-0--0--0-0-0--0--0-0-| 
G|-6--6-6-6--6--6-6-6--6--6-6-|-8--8-8-8--8--8-8-8--8--8-8-| 
D|-7--7-7-7--7--7-7-7--7--7-7-|-9--9-9-9--9--9-9-9--9--9-9-| 
A|-7--7-7-7--7--7-7-7--7--7-7-|-9--9-9-9--9--9-9-9--9--9-9-| 
E|-0--0-0-0--0--0-0-0--0--0-0-|-0--0-0-0--0--0-0-0--7--7-7-|
 | Gtr.2
 | >         >         >        >         >         >
E|-0--0-0-0--0--0-0-0--0--0-0-|-0--0-0-0--0--0-0-0--0--0-0-|
B|-0--0-0-0--0--0-0-0--0--0-0-|-0--0-0-0--0--0-0-0--0--0-0-| 
G|-6--6-6-6--6--6-6-6--6--6-6-|-8--8-8-8--8--8-8-8--8--8-8-| 
D|-7--7-7-7--7--7-7-7--7--7-7-|-9--9-9-9--9--9-9-9--9--9-9-| 
A|-7--7-7-7--7--7-7-7--7--7-7-|-9--9-9-9--9--9-9-9--9--9-9-| 
E|-0--0-0-0--0--0-0-0--0--0-0-|-0--0-0-0--0--0-0-0--7--7-7-|
 | Gtr.3
E|--------0---------0-----0---|--------0---------0-----0---|
B|----0---------0-------------|----0---------0-------------| 
G|-6---------6---------6------|-8---------8---------8------| 
D|----------------------------|----------------------------| 
A|----------------------------|----------------------------| 
E|----------------------------|----------------------------| 
   night        he's   a-wake.____________
   ____)                               (The si-lent    man._
 
 
   E         Esus      E        F#m11/E
   Gtr.1
   >         >         >        >         >         >
E|-0--0-0-0--0--0-0-0--0--0-0-|-0--0-0-0--0--0-0-0--0--0-0-|
B|-0--0-0-0--0--0-0-0--0--0-0-|-0--0-0-0--0--0-0-0--0--0-0-| 
G|-1--1-1-1--2--2-2-2--1--1-1-|-2--2-2-2--2--2-2-2--2--2-2-| 
D|-2--2-2-2--2--2-2-2--2--2-2-|-4--4-4-4--4--4-4-4--4--4-4-| 
A|-2--2-2-2--2--2-2-2--2--2-2-|-4--4-4-4--4--4-4-4--4--4-4-| 
E|-0--0-0-0--0--0-0-0--0--0-0-|-0--0-0-0--0--0-0-0--0--0-0-|
 | Gtr.2
 | >         >         >        >         >         >
E|-0--0-0-0--0--0-0-0--0--0-0-|-0--0-0-0--0--0-0-0--0--0-0-|
B|-0--0-0-0--0--0-0-0--0--0-0-|-0--0-0-0--0--0-0-0--0--0-0-| 
G|-1--1-1-1--2--2-2-2--2--2-2-|-2--2-2-2--2--2-2-2--2--2-2-| 
D|-2--2-2-2--2--2-2-2--2--2-2-|-4--4-4-4--4--4-4-4--4--4-4-| 
A|-2--2-2-2--2--2-2-2--2--2-2-|-4--4-4-4--4--4-4-4--4--4-4-| 
E|-0--0-0-0--0--0-0-0--0--0-0-|-0--0-0-0--0--0-0-0--0--0-0-|
 | Gtr.3
E|--------0---------0---------|--------0---------0-----0---|
B|----0---------0---------0---|----0---------0---------0---| 
G|-1---------2---------4------|-2---------2---------2------| 
D|----------------------------|----------------------------| 
A|----------------------------|----------------------------| 
E|----------------------------|----------------------------| 
          If they__have to suf- fer,____          there lies__
   ___)
 
 
   A(9)/E      B(11)/F#      A/C#        B/D#
   Gtr.1
E|-0--0-0-0----0--0-0-0----|-------------0--0-0-0----| 
B|-0--0-0-0----0--0-0-0----|10-101010----0--0-0-0----|
G|-6--6-6-6----8--8-8-8----|-9--9-9-9----8--8-8-8----|
D|-7--7-7-7----9--9-9-9----|-7--7-7-7----7--7-7-7----|
A|-7--7---7----9--9---9----|-x--x-x-x----9--9-9-9----|
E|-------------------------|-9--9-9-9----7--7-7-7----| 
 | Gtr.2
E|-0--0-0-0----0--0-0-0----|-------------0--0-0-0----| 
B|-0--0-0-0----0--0-0-0----|10-101010----0--0-0-0----|
G|-6--6-6-6----8--8-8-8----|-9--9-9-9----8--8-8-8----|
D|-7--7-7-7----9--9-9-9----|-7--7-7-7----7--7-7-7----|
A|-7--7---7----9--9---9----|-x--x-x-x----9--9-9-9----|
E|-------------------------|-9--9-9-9----7--7-7-7----| 
 | Gtr.3
E|-----------0-----------0-|-----------0-----------0-|
B|--------0-----------0----|--------0-----------0----| 
G|----6-----------8--------|----9----------11--------| 
D|-7-----------9-----------|11----------13-----------| 
A|-------------------------|-------------------------| 
E|-------------------------|-------------------------| 
  __      the si - lent     man.__________There lies_
 
 
   C#m    G#m7/B A    F#m11  E
   Gtr.1
E|-4--x-x------------------|-0----------------------------|| 
B|-5--x-x-4--x-x-2----0----|-0----------------------------|| 
G|-6--x-x-4--x-x-2----2----|-1----------------------------|| 
D|-6--x-x-4--x-x-2----2----|-2----------------------------|| 
A|-4------2--x-x-0----x----|-2----------------------------|| 
E|--------------------2----|-0----------------------------||
 | Gtr.2
E|-4--x-x------------------|-0----------------------------|| 
B|-5--x-x-4--x-x-2----0----|-0----------------------------|| 
G|-6--x-x-4--x-x-2----2----|-1----------------------------|| 
D|-6--x-x-4--x-x-2----2----|-2----------------------------|| 
A|-4------2--x-x-0----x----|-2----------------------------|| 
E|--------------------2----|-0----------------------------||
 | Gtr.3
E|(0)----------------------|------------------------------||
B|-------------------------|------------------------------|| 
G|-------------------------|------------------------------|| 
D|-------------------------|------------------------------|| 
A|-------------------------|------------------------------|| 
E|-------------------------|------------------------------|| 
  __      the si - lent     man.__________
 
 
 
E-mail: davidecostanzo@libero.it
Comments