Dream Theater - The Mirror Chords & Tabs

 

The Mirror Chords & Tabs

Dream Theater Chords & Tabs

Version: 1 Type: Bass Tab 0 ratings
1 star 2 stars 3 stars 4 stars 5 stars
comments

The Mirror Bass Tab

Intro:
                          x4                                   x7
G:|-------------------------||-----------------------------------|
D:|*-----------------------*||*---------------------------------*|
A:|*-----------------------*||*---------------------------------*|
E:|-------------------------||-----------------------------------|
H:|--0-0-0---0-0-0---0-0-0--||----0-0-0---0-0-0---0-0-0---0-0-0--|

                                                      x16
G:|-----------------------------------|------------------|
D:|-----------------------------------|*----------------*|
A:|-----------------------------------|*----------------*|
E:|-----------------------------------|------------------|
H:|-0-0-0---0-0-0---0-0-0---0-0-0---0-|--0-0---0-0-0---0-|

   ____________________________________
  |                                  x2|
  |                x7                  |
G:|------------------|-----------------|-----------------|-------------|
D:|*----------------*|-----------------|-----------------|-------------|
A:|*----------------*|-----------------|-----------------|-------------|
E:|------------------|-----5-4-3-2-1-0-|-----------------|-------------|
H:|--0-0---0-0-0---0-|-0-0-------------|-0-0---0-0-0---0-|-0-0---0-0-0-|


Verse 1:

G:|-----------------------|-----------------------|-----------------------|
D:|-----------------------|-----------------------|-----------------------|
A:|-----------------------|-----------------------|-----------------------|
E:|-----------------------|-----------------------|-----------------------|
H:|-0-0-0---0-0-0---0-0-0-|-0-0-0---0-0-0---0-0-0-|-3-3-3---3-3-3---3-3-3-|

G:|-----------------------|-----------------------|-----------------------|
D:|-----------------------|-----------------------|-----------------------|
A:|-----------------------|-----------------------|-----------------------|
E:|-----------------------|-----------------------|-----------------------|
H:|-3-3-3---3-3-3/5-5-5-5-5-|-0-0-0--0-0-0--0-0-0-|-0-0-0---0-0-0---0-0-0-|

G:|-----------------------|-----------------------|
D:|-----------------------|-----------------------|
A:|-----------------------|-----------------------|  Repeat the 6 first bars
E:|-1-1-1---1-1-1---1-1-1-|-----------------------|  of the verse, then play:
H:|-----------------------|-1-1-1---1-1-1---1-1-1-|

G:|-----------------------|---------------------------|
D:|-----------------------|---------------------------|
A:|-----------------------|---------------------------|
E:|-1-1-1---1-1-1---1-1-1-|---------------------------|
H:|-----------------------|-1-1-1---1-1-1---1-1-1---1-|


Bridge:

G:|-----------------|-----------------|-----------------|-----------------|
D:|-----------------|-----------------|-----------------|-----------------|
A:|-----------------|-----------------|-----------------|-----------------|
E:|-----------------|-----------------|-----------------|-----------------|
H:|-0-0---0-0-0---0-|-0-0---0-0-0---0-|-2-2---2-2-2---2-|-2-2---2-2-2---2-|

G:|-----------------|-----------------|-----------------|-----------------|
D:|-----------------|-----------------|-----------------|-----------------|
A:|-----------------|-----------------|-----------------|-----------------|
E:|-----------------|-----------------|-----------------|-----------------|
H:|-3-3---3-3-3---3-|-3-3---3-3-3---0-|-0-0---0-0-0---0-|-0-0---0-0-0---0-|

G:|-----------------|-----------------|-----------------|-----------------|
D:|-----------------|-----------------|-----------------|-----------------|
A:|-----------------|-----------------|-----------------|-----------------|
E:|-1-1---1-1-1---1-|-1-1---1-1-1---1-|-----------------|-----------------|
H:|-----------------|-----------------|-2-2---2-2-2---2-|-2-2---2-2-2---2-|

G:|-----------------|-----------------|-----------------|-----------------|
D:|-----------------|-----------------|-----------------|-----------------|
A:|-----------------|-----------------|-----------------|-----------------|
E:|-------6-------7-|-------6-------7-|-8-8---8-8-8---8-|-8-8---8-8-8---8-|
H:|-5p0-5---5p0-5---|-5p0-5---5p0-5---|-----------------|-----------------|


G:|--------|-------------------------------|-------------------------------|
D:|--------|-------------------------------|-------------------------------|
A:|--------|-------------------------------|-------------------------------|
E:|--------|-------------------------------|-------------------------------|
H:|-0-0----|-0-0-0---0-0-0---0-0-0---0-0-0-|-0-0-0---0-0-0---0-0-0---0-0-0-|


Verse 2:

G:|-----------------------|-----------------------|-----------------------|
D:|*----------------------|-----------------------|-----------------------|
A:|*----------------------|-----------------------|-----------------------|
E:|-----------------------|-----------------------|-----------------------|
H:|-0-0-0---0-0-0---0-0-0-|-0-0-0---0-0-0---0-0-0-|-3-3-3---3-3-3---3-3-3-|

G:|-----------------------|-----------------------|-----------------------|
D:|-----------------------|-----------------------|-----------------------|
A:|-----------------------|-----------------------|-----------------------|
E:|-----------------------|-----------------------|-----------------------|
H:|-3-3-3---3-3-3/5-5-5-5-5-|-0-0-0--0-0-0--0-0-0-|-0-0-0---0-0-0---0-0-0-|

G:|-----------------------|-----------------------|
D:|-----------------------|----------------------*|
A:|-----------------------|----------------------*|
E:|-1-1-1---1-1-1---1-1-1-|-----------------------|
H:|-----------------------|-1-1-1---1-1-1---1-1-1-|


Chorus:

G:|------------------------------|------------------------------|
D:|------------------------------|------------------------------|
A:|------------------------------|------------------------------|
E:|-0---0-0-0---0----0-0-2p0-0-0-|-0---0-0----------0-0-3-2-0-0-|
H:|------------------------------|---------3---5----------------|
[ Tab from: http://www.guitartabs.cc/tabs/d/dream_theater/the_mirror_btab.html ]
G:|------------------------------|--------------------------|
D:|------------------------------|--------------------------|
A:|------------------------------|--------------------------|
E:|-0---0-0-6---5----0-0-5-3-----|--------------------------|
H:|--------------------------6-3-|-5\3-5----5-5---5-5---5-5-|

G:|--------------------------|--------------------------|
D:|--------------------------|--------------------------|
A:|--------------------------|--------------------------|
E:|-6\5-6--------------------|--------------------------|
H:|----------5-5---5-5---5-5-|-6\5-6----5-5---5-5---5-5-|

G:|-------------------------|-------------------------|
D:|-------------------------|-------------------------|
A:|-------------------------|-------------------------|
E:|-------------------------|-------------------------|
H:|-5\3-5----5-----0-0-6----|-5\3-5----5-------0--3---|


"Slow" part:

G:|---------------------------------|---------------------------------|
D:|---------------------------------|---------------------------------|
A:|---------------------------------|---------------------------------|
E:|---------------------------------|---------------------------------|
H:|-0-0---0-0-0---0-0-0---0-0-0---0-|-0-0---0-0-0---0-0-0---0-0-0---0-|

G:|---------------------------------|---------------------------------|
D:|---------------------------------|---------------------------------|
A:|---------------------------------|---------------------------------|
E:|---------------------------------|---------------------------------|
H:|-0-0---0-0-0---0-0-0---0-0-0---0-|-0-0---0-0-0---0-0-0---0-0-0---0-|

G:|---------------------------------|---------------------------------|
D:|---------------------------------|---------------------------------|
A:|---------------------------------|---------------------------------|
E:|-1-1---1-1-1---1-1-1---1-1-1---1-|---------------------------------|
H:|---------------------------------|-2-2---2-2-2---2-2-2---2-2-2---2-|

G:|---------------------------------|---------------------------------|
D:|---------------------------------|---------------------------------|
A:|---------------------------------|---------------------------------|
E:|-0-0---0-0-0---0-0-0---0-0-0---0-|---------------------------------|
H:|---------------------------------|-1-1---1-1-1---1-1-1---1-1-1---1-|

G:|---------------------------------|---------------------------------|
D:|---------------------------------|---------------------------------|
A:|---------------------------------|---------------------------------|
E:|---------7---------------7-------|---------7---------------7-------|
H:|-0---0-0-----0-0-0---0-0-----0-0-|-0---0-0-----0-0-0---0-0-----0-0-|

G:|---------------------------------|---------------------------------|
D:|---------------------------------|---------------------------------|
A:|---------5---------------5-------|---------5---------------7-------|
E:|---------------------------------|---------------------------------|
H:|-3---3-3-----3-3-3---3-3-----3-3-|-3---3-3-----3-3-5---5-5-----5-5-|

G:|---------------------------------|---------------------------------|
D:|---------------------------------|---------------------------------|
A:|---------------------------------|---------------------------------|
E:|---------7---------------7-------|---------7---------------7-------|
H:|-0---0-0-----0-0-0---0-0-----0-0-|-0---0-0-----0-0-0---0-0-----0-0-|

G:|---------------------------------|---------------------------------|
D:|---------3---------------3-------|---------------------------------|
A:|---------------------------------|---------3---------------3-------|
E:|-1---1-1-----1-1-1---1-1-----1-1-|---------------------------------|
H:|---------------------------------|-1---1-1-----1-1-1---1-1-----1-1-|

G:|---------------------------------|---------------------------------|
D:|---------------------------------|---------------------------------|
A:|---------------------------------|---------------------------------|
E:|---------------------------------|---------------------------------|
H:|-0---0-0-0---0-0-0---0-0-0---0-0-|-0---0-0-0---0-0-0---0-0-0---0-0-|

G:|---------------------------------|---------------------------------|
D:|---------------------------------|---------------------------------|
A:|---------------------------------|---------------------------------|
E:|---------------------------------|---------------------------------|
H:|-3---3-3-3---3-3-3---3-3-3---3-3-|-3---3-3-3---3-3-5-5-5-5-5-5-5-5-|

G:|-----------------------------------|-----------------------------------|
D:|-----------------------------------|-----------------------------------|
A:|-----------------------------------|-----------------------------------|
E:|-7-----7----------7-----7----------|-7-----7----------7-----7----------|
H:|---0-0------0-0-0---0-0------0-0-0-|---0-0------0-0-0---0-0------0-0-0-|

G:|-----------------------------------|-----------------------------------|
D:|-----------------------------------|-----------------------------------|
A:|-----------------------------------|-----------------------------------|
E:|-1-1-1-1----1-1-1-1-1-1-1----1-1-1-|-----------------------------------|
H:|-----------------------------------|-1-1-1-1----1-1-1-1-1-1-1----1-1-1-|


Bridge (played as before)

Chorus (as before)

Play this during the piano melody:
G:|------------|------------|------------|------------|
D:|*-----------|------------|------------|-----------*|
A:|*-----------|------------|------------|-----------*|
E:|------------|------------|-3----------|-(3)--------|
H:|-0----------|-(0)--------|------------|------------|

Outro:
                                                                   x20
G:|---------------------------------|---------------------------------|
D:|*--------------------------------|--------------------------------*|
A:|*--------------------------------|--------------------------------*|
E:|-----3---3-2---2-----2---2---3---|-----3---3-2---2-----3---3-2-1---|
H:|-0-----0-----0-----0---0---0-----|-0-----0-----0-----0---0---------|

Thanks, please rate it after you learn it.
Comments