Dream Theater - The Dance Of Eternity Chords & Tabs

 

The Dance Of Eternity Chords & Tabs

Dream Theater Chords & Tabs

Version: 2 Type: Bass Tab 0 ratings
1 star 2 stars 3 stars 4 stars 5 stars
comments

The Dance Of Eternity Bass Tab

   
                         SCENE 9: THE DANCE OF ETERNITY
                          As recorded by DREAM THEATER

Music by DREAM THEATER
Transcribed by Joe Britton - Larrylaffer_uk@yahoo.co.uk

Gtr I (B E A D G C) -

    Q=109                   Q=124
   4/4                                           7/8
    Gtr I
    |-3-|           |-3-|
    S S S E E E E E S S S E  8x H    +E  E +Q     H    +E  Q
||---------------------------||-----------------|-------------|
||o-------------------------o||-----------------|-------------|
||---------------------------||-----------------|-------------|
||---------------------------||-----------------|-------------|
||o-------------------------o||-3----(3)-4-(4)--|-3----(3)-1--|
||--3-3-3-3-x-3-x-3-3-3-3-3--||-----------------|-------------|


 3/4                   4/4               7/8
  H.        Q.   Q.     H    +E  E +Q     H    +E  Q
|---------|-----------|-----------------|-------------|
|---------|-----------|-----------------|-------------|
|---------|-----------|-----------------|-------------|
|---------|-----------|-----------------|-------------|
|-0-------|------2----|-3----(3)-4-(4)--|-3----(3)-1--|
|---------|-1---------|-----------------|-------------|


 3/4                   4/4               7/8
  H.        Q.   Q.     E E E E E E E E   E E E S S E E E
|---------|-----------|-----------------|------------------|
|---------|-----------|-----------------|------------------|
|---------|-----------|-----5---3-6-5---|---------3-5------|
|---------|-----------|---5---5-------6-|-5---5-6-----3----|
|-0-------|-----------|-3---------------|---3-----------1--|
|---------|-1----4----|-----------------|------------------|


 3/4           7/8             4/4               7/8
  E E E E E E   E E E E E E E   E E E E E E E E   E E E S S E E E
|-------------|---------------|-----------------|------------------|
|-----------4-|-5---------1---|-----------------|------------------|
|-----2-3-2---|-----5---------|-----5---3-6-5---|---------3-5------|
|---2---------|---3---4-------|---5---5-------6-|-5---5-6-----3----|
|-0-----------|---------2---4-|-3---------------|---3-----------1--|
|-------------|---------------|-----------------|------------------|


 3/4           7/8                 13/16
                  |-3-|
  E E E E E E   E S S S E E E E E   E S E S S S S S S S S
|-------------|-------------------|------------------------|
|-----------4-|-5-----------------|------------------------|
|-----2-3-2---|-------3-5---------|-----------------3-5-6--|
|---2---------|---3-6-----6-------|-------------3-5--------|
|-0-----------|---------------6-4-|-3-4-3-4-3-4------------|
|-------------|-------------4-----|------------------------|


 15/16                     17/16
  E S E S E S S S S S S S   E S E S E E S S S S S S S
|-------------------------|---------------------------|
|-------------------------|---------------------------|
|-------------------------|---------------------3-5-6-|
|-----------5-3-----------|-----------------3-5-------|
|-3-4-3-4-3-----3-2-------|-3-4-3-4-3-4-3-4-----------|
|-------------------6-4-3-|---------------------------|


 14/16                     4/4               7/8
  E S E S S S S S S S S S   H    +E  E +Q     H    +E  Q
|-------------------------|-----------------|-------------|
|-------------------------|-----------------|-------------|
|-------------------------|-----------------|-------------|
|-------------5-3---------|-----------------|-------------|
|-3-4-3-4-3-4-----3-2-----|-----------------|-------------|
|---------------------6-4-|-3----(3)-4-(4)--|-3----(3)-1--|


 3/4                   4/4               7/8
  H.        Q.   Q.     H    +E  E +Q     H    +E  Q
|---------|-----------|-----------------|-------------|
|---------|-----------|-----------------|-------------|
|---------|-----------|-----------------|-------------|
|---------|-----------|-----------------|-------------|
|---------|-3---------|-----------------|-------------|
|-0-------|------2----|-3----(3)-4-(4)--|-3----(3)-1--|


 4/4        5/4           17/16
  W          q  W          E S E S E E S S S S S S S
|----------|-------------|----------------------------|
|----------|-------------|----------------------------|
|----------|-------------|---------------------3-5-6--|
|----------|-------------|-----------------3-5--------|
|-4--------|-3-----------|-3-4-3-4-3-4-3-4------------|
|----------|-------------|----------------------------|


 15/16                     13/16
  E S E S E S S S S S S S   E S E S S S S S S S S
|-------------------------|-----------------------|
|-------------------------|-----------------------|
|-------------------------|-----------------3-5-6-|
|-----------5-3-----------|-------------3-5-------|
|-3-4-3-4-3-----3-2-------|-3-4-3-4-3-4-----------|
|-------------------6-4-3-|-----------------------|


 4/4                3/4
  Q  +E  E +Q   Q    S S  S  S  +S   S  E  E  E   H.
|------------------|----------------------------|-------|
|------------------|--------16-(16)-------10-12-|-------|
|------------------|-----14------------10-------|-------|
|------------------|----------------12----------|-------|
|-6--(6)-4-(4)-----|-0-0------------------------|-------|
|---------------3--|----------------------------|-------|


 5/4                               2/4
  S S S S S S S S S S S S E E E E   S S S S S S S S
|---------------------------------|-----------------|
|---------------------------------|-------7-3-------|
|-------4-4-4-------4-4-4---4-5---|-----6-----4-----|
|-------------------------4-----3-|---5---------5---|
|-2-2-2-------2-2-2---------------|-4-------------6-|
|---------------------------------|-----------------|


 5/4                               2/4
  S S S S S S S S S S S S E E E E   S S S S S S S S
|---------------------------------|-----------------|
|---------------------------------|-7-----3---------|
|-------4-4-4-------4-4-4---4-5---|---6-----4---5---|
|-------------------------4-----3-|-----5-----5---4-|
|-2-2-2-------2-2-2---------------|-----------------|
|---------------------------------|-----------------|


 5/4                               2/4
  S S S S S S S S S S S S E E E E   S S S S S S S S
|---------------------------------|-----------------|
|---------------------------------|-------7-9-------|
|-------4-4-4-------4-4-4---4-5---|-----8-----6-----|
|-------------------------4-----3-|---7---------5---|
|-2-2-2-------2-2-2---------------|-6-------------4-|
|---------------------------------|-----------------|


 5/4                               5/8
                                    |-3-| |-3-|   |-3-| |-3-|
  S S S S S S S S S S S S E E E E   S S S S S S e S S S S S S
|---------------------------------|----------------------------|
|---------------------------------|----------------------------|
|-------4-4-4-------4-4-4---4-5---|----------------------------|
|-------------------------4-----3-|-0--------------------------|
|-2-2-2-------2-2-2---------------|---4-4-3-3-2-1-0------------|
|---------------------------------|-----------------4-4-3-2-1--|


   11/4
   S S S S S S S S S S S S S S S S S S S S S S S S S S S S S S S S S S S S S S S S S S S S
|---------------------------------------------------------------------------------------|
|o-------------------------------------------------------------------------------------o|
|---------------------------------------------------------------------------------------|
|---------------------------------------------------------------------------------------|
|o-------------------------------------------------------------------------------------o|
|-0-0-0-0---0-0-0-0---0-0-0-0---0-0-0-0---0-0-0-0---0-0-0-0---0-0-0-0---0-0-0-0---0-0-0-|


  S S S S S S S S S S S S S S S S S S S S S S S S S S S S S S S S S S S S S S S S S S S S
|----------------------------------------------------------------------------------------|
|----------------------------------------------------------------------------------------|
|----------------------------------------------------------------------------------------|
|----------------------------------------------------------------------------------------|
|-7-7-7-7---7-7-7-7---7-7-7-7---7-7-7-7---7-7-7-7---7-7-7-7---7-7-7-7---7-7-7-7---7-7-7--|
|----------------------------------------------------------------------------------------|


  Q=95
 4/4                                       3/4
  |---6---| |---6---| |---6---| |---6---|   |---6---| |---6---| |---6---|
  S S S S E S S S S E S S S S E S S S S E   S S S S E S S S S E S S S S E
|-----------------------------------------|--------------------------------|
|-----------------------------------------|--------------------------------|
|-----------------------------------------|--------------------------------|
|-----------------------------------------|--------------------------------|
|-7-7-7-7---7-7-7-7---7-7-7-7---7-7-7-7---|-7-7-7-7---7-7-7-7---7-7-7-7----|
|-----------------------------------------|--------------------------------|


  Q=120
 2/4             5/4
  |---6---|
  S S S S E Q     S S S S S S S S S S S S S S S S S S S S
|---------------|-----------------------------------------|
|---------------|-----------------------------------------|
|---------------|-----------------------------------------|
|---------------|-----------------------------------------|
|-7-7-7-7---7\--|-0-0-0-0---0-0-0-0---0-0-0-0---0-0-0-0---|
|---------------|-----------------------------------------|


 6/4
  S S S S S S S S S S S S S S S S S S S S S S S S
|-------------------------------------------------|
|-------------------------------------------------|
|-------------------------------------------------|
|-------------------------------------------------|
|-0-0-0-0---0-0-0-0---0-0-0-0---0-0-0-0---0-0-0---|
|-------------------------------------------------|


 5/4
  S S S S S S S S S S S S S S S S S S S S
|-----------------------------------------|
|-----------------------------------------|
|-------------------------------7-7-7-7---|
|-7-7-7-7---7-7-7-7---9-9-9-9-------------|
|-----------------------------------------|
|-----------------------------------------|


 6/4
  S S S S S S S S S S S S S S S S S S S S S S S S
|----------------------------------------------------|
|----------------------------------------------------|
|-----------------------------------------7-7-7------|
|-7-7-7-7---7-7-7-7---9-9-9-9---9-9-9-9--------------|
|----------------------------------------------------|
|----------------------------------------------------|


 4/4
  S S S S S S S  S S S S S S S S S   Q  Q  Q  Q
|----------------------------------|-------------|
|----------------------------------|-------------|
|----------------------------------|-------------|
|-7-----6--------------------------|-------------|
|---7-0---7-0---10-9-0-8-7-0-6-5---|-9-----8-----|
|--------------------------------7-|----8-----7--|


  S S S S S S S  S S S S S S S S S   S S S S S S S S S S S S S S S S
|----------------------------------|-----------------------------------|
|----------------------------------|-----------------------------------|
|----------------------------------|-5---------------------------------|
|-7-----6--------------------------|-------6-7-------------------------|
|---7-0---7-0---10-9-0-8-7-0-6-5---|---8-9-----5-6-8-9-----5-6-5-------|
|--------------------------------7-|-------------------7-8-------8-7---|


  S S S S S S S  S S S S S S S S S   S S S S S S S S S S S  S S S S S
|----------------------------------|------------------------------------|
|----------------------------------|------------------------------------|
|----------------------------------|------------------------------------|
|-7-----6--------------------------|--------------------------6---6-9---|
|---7-0---7-0---10-9-0-8-7-0-6-5---|---------------5-7-8-9-10---7-------|
|--------------------------------7-|-8-7-5-7-4-7-8----------------------|


  S S S S S S S  S S S S S S S S S   e e s e S +H
|----------------------------------|-------------------|
|----------------------------------|-------------------|
|----------------------------------|-------------------|
|-7-----6--------------------------|-------------------|
|---7-0---7-0---10-9-0-8-7-0-6-5---|-8-8-8-8-7-(7)\----|
|--------------------------------7-|-------------------|


  E E E S S S E S E E   E E S E S +S  S E E E
|---------------------|-----------------------|
|---------------------|-----------------------|
|---------------------|-----------------------|
|---------------------|-----------------------|
|-0-0-----0---0-0-----|-----------------------|
|-----0-0---------0-0-|-2-2-1-1-0-(0)-0-0-3-4-|


  E E E S S S E S E E   E E S E S +S  S E E E
|---------------------|-----------------------|
|---------------------|-----------------------|
|---------------------|-----------------------|
|---------------------|-----------------------|
|-0-0-----0---0-0-----|-2-2-2-2---------3-2-1-|
|-----0-0---------0-0-|---------0-(0)-0-------|


  Q  Q  E. S S E S   E E S E S +S  S E E E
|------------------|------------------------|
|------------------|------------------------|
|------------------|------------------------|
|------------------|------------------------|
|-0----------------|------------------------|
|----4--3--2---2---|-1-1-1-1-0-(0)-0-0-3-4--|


  Q  Q  E. S S E.   S E. E. S +E  E +S  E.   q  H.
|-----------------|------------------------|----------|
|-----------------|------------------------|----------|
|-----------------|------------------------|----------|
|-----------------|------------------------|----------|
|-0--2--3--4---4--|---5--5--5-(5)-5-(5)-5--|-7--------|
|-----------------|------------------------|----------|


    S S S S S S S S S S S S S S S S   S S S S S S S S S S S S S S S S
||----------------------------------|----------------------------------|
||o---------------------------------|----------------------------------|
||--2-2-2-2-2-2-2-2-2-2-2-2-2-2-2-2-|-0-0-0-0-0-0-0-0-0-0-0-0-0-0-0-0--|
||----------------------------------|----------------------------------|
||o---------------------------------|----------------------------------|
||----------------------------------|----------------------------------|


  S S S S S S S S S S S S S S S S   S S S S S S S S S S S S S S S S
|---------------------------------|------------------------------------||
|---------------------------------|-----------------------------------o||
|---------------------------------|------------------------------------||
|-0-0-0-0-0-0-0-0-0-0-0-0-0-0-0-0-|------------------------------------||
|---------------------------------|-1-1-1-1-1-1-1-1-1-1-1-1-1-1-1-1---o||
|---------------------------------|------------------------------------||


  S S S S S S S S S S S S S S S S   S S S S S S S S S S S S S S S S
|---------------------------------|---------------------------------|
|---------------------------------|---------------------------------|
|---------------------------------|---------------------------------|
|---------------------------------|---------------------------------|
|-0-0-0-0-0-0-0-0-0-0-0-0-0-0-0-0-|-1-1-1-1-1-1-1-1-3-3-3-3-3-3-3-3-|
|---------------------------------|---------------------------------|


   |------6-------|  |------6-------|  |------6-------|  |------6-------|
   S  S  S  S  S  S  S  S  S  S  S  S  S  S  S  S  S  S  S  S  S  S  S  S
|--------------------------------------------------------------------------|
|--------------------------------------------------------------------------|
|-------------------------------------------------------10-10--------------|
|-10-10-12-12-12-12-10-10-12-12-12-12-10-10-12-12-12-12-------12-12-12-12--|
|--------------------------------------------------------------------------|
|--------------------------------------------------------------------------|


   |--------6----|  |---------6----|  |--------6------|  |--------6------|
   S S  S  S  S  S  S  S  S  S  S  S  S  S  S  S   S  S  S  S  S  S  S  S
|--------------------------------------------------------------------------|
|--------------------------------------------------------------------------|
|--------------------------------------------------------------------------|
|-10-12-14-15-17-18-19-17-15-14-13-12-10-12-14-15-17-19-20-20-19-17-15-14--|
|--------------------------------------------------------------------------|
|--------------------------------------------------------------------------|

Note's are less important here, simply slide up the string whilst
playing sextuplet sixteenth notes with right hand.

   |--------6-----|   |--------6----|  |--------6-----|  |--------6-----|
   S  S  S  S  S  S  S  S  S  S  S  S  S  S  S  S  S  S  S  S  S  S  S  S
|-------------------------------------------------------------------------|
|-------------------------------------------------------------------------|
|-------------------------------------------------------------------------|
|-10-12-15-17-19-21-22-22-21-19-17-15-10-12-17-19-21-22-23-23-22-19-17-15-|
|-------------------------------------------------------------------------|
|-------------------------------------------------------------------------|


                          ~~~~
   |--------6---------|             |------6------|  |------6-------|
   S  S   S   S   S   S   E.  T  T  S  S  S  S S  S  S  S  S  S  S  S
|---------------------------------------------------------------------|
|-------------------------------------19--0----0-19-21-22-21-19-------|
|----------------------------19-19-21----21-22------------------22-21-|
|-10-12-/17-/19-/21-/22-/24-------------------------------------------|
|---------------------------------------------------------------------|
|---------------------------------------------------------------------|


   |------6-------|  |------6-------|  |------6-------|  |------6-------|
   S  S  S  S  S  S  S  S  S  S  S  S  S  S  S  S  S  S  S  S  S  S  S  S
|-------------------------------------------------------------------------|
|-------------------------------------------------------------------------|
|-19-------------------19-------------------------------------------------|
|----22-21-20-19-20-22----22-21-20-19----------------------19-------------|
|-------------------------------------22-21-20-19-20-21-22----22-21-20-19-|
|-------------------------------------------------------------------------|


   |------6-------|  |-----6------|  |------6------|  |-----5------|
   S  S  S  S  S  S  S  S  S  S S S  S  S  S S  S  S  S  S  S   S  S
|---------------------------------x-16-18-17-x-----------------------|
|-------------------------16-17----------------17-17-16--------------|
|-------------------17-19-------------------------------19-17--------|
|----------17-19-20--------------------------------------------20-19-|
|-17-19-20-----------------------------------------------------------|
|--------------------------------------------------------------------|

[ Tab from: http://www.guitartabs.cc/tabs/d/dream_theater/the_dance_of_eternity_btab_ver_2.html ]
                                       3/4
   S  E.  Q    S  S  S  S  S  S  S  S    +S   S  S  S  S  S  S  S  Q
|-------------------------------------|-------------------------------|
|-------------------------------------|-------------------------------|
|-------------------------------------|---------12-12-14-14-16-16-14--|
|-17----------12-12-14-12-12-14-14-15-|-(15)-15-------15-15-17-17-15--|
|----20--19\--------------------------|-------------------------------|
|-------------------------------------|-------------------------------|


   4/4
    E S S E S S +S  S E S S S S
||------------------------------|
||o-----------------------------|
||------------------------------|
||------------------------------|
||o-5-------5-7-(7)-------------|
||----8-6-5---------8-5-6-8-6-5-|


  E S S E S S +S  S E S S S S   E S S E S S +S  S E S S S S
|-----------------------------|------------------------------|
|-----------------------------|------------------------------|
|-----------------------------|------------------------------|
|---------------------5-7-5-7-|------------------------------|
|-5-------7-8-(8)-------------|-5-------5-7-(7)--------------|
|---8-6-5---------8-5---------|---8-6-5---------8-5-6-8-6-5--|


  S S E S S S S S S S S +E  S S         S S S S S S S S S S S S S S S S   4x
|--------------------------------||-||------------------------------------||
|-------------------------------o||-||o----------------------------------o||
|--------------------------------||-||------------------------------------||
|-------------5-7---8-7-(7)------||-||------------------------------------||
|---5-7---------------------8-7-o||-||o-5-0-3-1-0-0-5-7-0-3-0-0-1-3-1-0--o||
|-------8-5----------------------||-||------------------------------------||


  S S S S S S S S S S S S S S S S   S S S S S S S S S S S S S S S S
|---------------------------------|-----------------------------------|
|---------------------------------|-----------------------------------|
|---------------------------------|-----------------------------------|
|---------------------------------|-------------------------5-7-5-7---|
|-5-0-3-1-0-0-5-7-0-3-0-0-1-3-1-0-|-5-0-3-1-0-0-7-8-0-3-0-0-----------|
|---------------------------------|-----------------------------------|


  S S S S S S S S S S S S S S S S   S S S S S S S S S S S S +E  S S
|---------------------------------|----------------------------------|
|---------------------------------|----------------------------------|
|---------------------------------|----------------------------------|
|---------------------------------|---------------5-7---8-7-(7)-8-7--|
|-5-0-3-1-0-0-5-7-0-3-0-0-1-3-1-0-|-0-5-7-0-3-0-0--------------------|
|---------------------------------|----------------------------------|


    S S S S S S S S S S S S S S S S  4x S S S S S S S S S S S S S S S S
||-----------------------------------||----------------------------------|
||o---------------------------------o||----------------------------------|
||-----------------------------------||----------------------------------|
||--5-0-3-2-0-0-5-7-0-3-0-0-2-3-2-0--||-5-0-3-2-0-0-5-7-0-3-0-0-2-3-2-0--|
||o---------------------------------o||----------------------------------|
||-----------------------------------||----------------------------------|


  S S S S S S S S S S S S S S S S   S S S S S S S S S S S S S S S S
|---------------------------------|---------------------------------|
|---------------------------------|---------------------------------|
|---------------7-5---5-----------|---------------------------------|
|-5-0-3-2-0-0-5-----7---7-5-7-5---|-5-0-3-2-0-0-5-7-0-3-0-0-2-3-2-0-|
|-------------------------------8-|---------------------------------|
|---------------------------------|---------------------------------|


  S S S S S S S S S S S S S S S S   S S S S S S S S S S S S S S S S
|---------------------------------|---------------------------------|
|---------------------------------|---------------------------------|
|---------------7---5-------------|---------------------------------|
|-5-0-3-2-0-0-5---------7---------|-5-0-3-2-0-0-5-7-0-3-0-0-2-3-2-0-|
|---------------------------8-7-5-|---------------------------------|
|---------------------------------|---------------------------------|


  S S S S S S S S S S S S S S S S   S S S S S S S  S S S S S S S S S
|---------------------------------|----------------------------------|
|---------------------------------|----------------------------------|
|---------------------------------|----------------------------------|
|-7-0-5-3-0-0-7-8-0-5-0-0-3-5-3-0-|-8-0-7-5-0-0-8-10-0-7-0-0-5-7-5-0-|
|---------------------------------|----------------------------------|
|---------------------------------|----------------------------------|


                                      7/16
   S S S S S S  S  S S S S S S S S S    S S  S S S S  S    S S  S  S S S  S
|------------------------------------|------------------|---------------------|
|------------------------------------|------------------|---------------------|
|------------------------------------|------------------|---------------------|
|-10-0-8-7-0-0-10-12-0-8-0-0-7-8-7-0-|-12-0-10-8-0-0-12-|-14-0-12-10-0-0-14---|
|------------------------------------|------------------|---------------------|
|------------------------------------|------------------|---------------------|


   S S  S  S S S  S    S S  S  S S S  S
|-------------------|-------------------|
|-------------------|-------------------|
|-------------------|-------------------|
|-15-0-14-12-0-0-15-|-17-0-15-14-0-0-17-|
|-------------------|-------------------|
|-------------------|-------------------|


 6/16
   S S  S  S S  S    S S  S  S S  S    S S  S  S S  S
|-----------------|-----------------|-------------------|
|-----------------|-----------------|-------------------|
|-----------------|-----------------|-------------------|
|-19-0-17-15-0-19-|-20-0-19-17-0-20-|-22-0-20-19-0-22---|
|-----------------|-----------------|-------------------|
|-----------------|-----------------|-------------------|


                                   7/16
   S S  S  S S  S    S S  S  E  S   S S S S S S S
|-----------------|---------------|---------------|
|-----------------|---------------|---------------|
|-----------------|---------------|---------------|
|-24-0-22-24-0-22-|-24-0-22-24\---|-------------8-|
|-----------------|---------------|-----8-7-7-8---|
|-----------------|-------------x-|-5-6-----------|


  S S  S S S  S  S   S  S  S  S  S  S  S
|------------------|------12-11-11-12-17---|
|---------------10-|-9-10------------------|
|-----10-9-9-10----|-----------------------|
|-7-8--------------|-----------------------|
|------------------|-----------------------|
|------------------|-----------------------|


                Q=175
 4/4             5/8                         7/8
   W               E E  E E E    E E  E E E    E E  E E  E E E
|-16tr17--------|-------------|-------------|-------------------|
|---------------|-------------|-------------|-------------------|
|---------------|-------------|-------------|-------------------|
|---------------|-12-0-12-0-0-|-12-0-12-0-0-|-12-0-12-0-12-0-0--|
|---------------|-------------|-------------|-------------------|
|---------------|-------------|-------------|-------------------|


 5/8           7/8                5/8
   E E  E E E    E E  E E  E E E    E E  E E E
|-------------|------------------|-------------|
|-------------|------------------|-------------|
|-------------|------------------|-------------|
|-12-0-12-0-0-|-12-0-12-0-12-0-0-|-12-0-12-0-0-|
|-------------|------------------|-------------|
|-------------|------------------|-------------|


               7/8
   E E  E E E    E E  E E  E E E
|-------------|-------------------|
|-------------|-------------------|
|-------------|-------------------|
|-12-0-12-0-0-|-12-0-12-0-12-0-0--|
|-------------|-------------------|
|-------------|-------------------|


                                          Q=124
 5/4                                       4/4
   H  q +E  E +Q       q Q   q  +E  E +q    H    +E  E +Q
|--------------------|--------------------|----------------|
|--------------------|--------------------|----------------|
|--------------------|--------------------|----------------|
|-12--8-(8)----------|------12-(12)-8-(8)-|----------------|
|-----------8-(8)\---|-5------------------|-3----(3)-4-(4)-|
|--------------------|--------------------|----------------|


 7/8           3/4                   4/4
  H    +E  Q    H.        Q.   Q.     H    +E  E +Q
|-------------|---------|-----------|-----------------|
|-------------|---------|-----------|-----------------|
|-------------|---------|-----------|-----------------|
|-------------|---------|-----------|-----------------|
|-3----(3)-1--|-0-------|------2----|-3----(3)-4-(4)--|
|-------------|---------|-1---------|-----------------|


              Q.=124
 7/8             9/8            15/8
  H    +E  Q      H.      Q.     H.      q.   q.   q.
|-------------||---------------|-------------------------|
|-------------||o--------------|-------------------------|
|-------------||--2-------3----|-0-----------------------|
|-------------||---------------|---------4----0----------|
|-3----(3)-1--||o--------------|-------------------1-----|
|-------------||---------------|-------------------------|


 9/8            6/8   15/8                           9/8
  H.      Q.     H.       Q.   +Q    Q.    H  Q.          H.      Q.
|--------------|-----|-----------------------------||-||----------------|
|--------------|-----|----------------------------o||-||o---------------|
|-2-------3----|-0---|-----------------------------||-||--2-------3-----|
|--------------|-----|----4----(4)---0-------------||-||----------------|
|--------------|-----|---------------------4--2---o||-||o---------------|
|--------------|-----|-----------------------------||-||----------------|


 12/8                6/8         4/4
  Q.   Q.   H.        Q.   Q.     q  q  q  q
|-------------------|-----------|--------------||
|-------------------|-----------|-------------o||
|-0-----------------|-2----3----|-0------------||
|------4----0-------|-----------|----4--0--1---||
|-------------------|-----------|-------------o||
|-------------------|-----------|--------------||


  Q=115
 3/4
   S  S  S  S  S  S  S  S  S  S  S  S
|-------------------------------------|
|-------------------------------------|
|----------13----12-------------------|
|-------11----11----13-14-14-15-11-12-|
|-12-14-------------------------------|
|-------------------------------------|


 4/4
   S  S  S  S  S  S  S  S  S  S  S  S  S  S  S  S
|--------------------------------------------------|
|--------------------------------------------------|
|----------13----12--------------------------------|
|-------11----11----13-14-14-15-11-12-13-14-10-11--|
|-12-14--------------------------------------------|
|--------------------------------------------------|


 3/4
   S  S  S  S  S  S  S  S  S  S  S  S
|-------------------------------------|
|-------------------------------------|
|----------13----12-------------------|
|-------11----11----13-14-14-15-11-12-|
|-12-14-------------------------------|
|-------------------------------------|


 4/4
   S  S  S  S  S  S  S  S  S  S  S  S  S  S  S  S
|--------------------------------------------------|
|----------------------------------------11-12-13--|
|----------13----12----------11-12-13-14-----------|
|-------11----11----13-14-15-----------------------|
|-12-14--------------------------------------------|
|--------------------------------------------------|


 3/4                                   5/8
   S  S  S  S  S  S  S  S  S  S  S  S    S  S  S  S  S  S  S  S  S  S
|-------------------------------------|-------------------------------|
|-------------------------------------|-------------------------------|
|----------13----12-------------------|----------13----12-------------|
|-------11----11----13-14-14-15-11-12-|-------11----11----14-15-11-12-|
|-12-14-------------------------------|-12-14-------------------------|
|-------------------------------------|-------------------------------|


 3/4
   S  S  S  S  S  S  S  S  S  S  S  S
|---------------------------------------|
|---------------------------------------|
|----------13----12---------------------|
|-------11----11----13-14-14-15-11-12---|
|-12-14---------------------------------|
|---------------------------------------|


 7/8
   S  S  S  S  S  S  S  S  S  S  S  S  S  S
|-------------------------------------------|
|-------------------------------------------|
|----------13----12-------------------------|
|-------11----11----14-15-11-12-13-14-10-11-|
|-12-14-------------------------------------|
|-------------------------------------------|


 5/16
   S  S  S  S S    S  S  S  S S    S  S  S  S S
|---------------|---------------|----------------|
|---------------|---------------|----------------|
|---------------|---------------|----------------|
|-14-11-13-11---|-14-11-13-11---|-14-11-13-11----|
|-------------0-|-------------0-|-------------0--|
|---------------|---------------|----------------|


 6/16               3/4
   S  S  S S  S  S   S S S S S S S S S S S S
|------------------|-------------------------|
|------------------|-------------------------|
|----------9-11-12-|-------------------------|
|-10-11-13---------|-------6---5-------------|
|------------------|-----4---4---6-7-7-8-4-5-|
|------------------|-5-7---------------------|


 4/4
  S S S S S S S S S S S S S S S S
|-----------------------------------|
|-----------------------------------|
|-----------------------------------|
|-------6---5-----------------------|
|-----4---4---6-7-7-8-4-5-6-7-3-4---|
|-5-7-------------------------------|


 3/4                       4/4
  S S S S S S S S S S S S   S S S S S S S S S S S S S S S S
|-------------------------|----------------------------------|
|-------------------------|----------------------------------|
|-------------------------|---------------------------4-5-6--|
|-------6---5-------------|-------6---5-------4-5-6-7--------|
|-----4---4---6-7-7-8-4-5-|-----4---4---6-7-8----------------|
|-5-7---------------------|-5-7------------------------------|


 3/4                       5/8                   3/4
  S S S S S S S S S S S S   S S S S S S S S S S   S S S S S S S S S S S S
|-------------------------|---------------------|---------------------------|
|-------------------------|---------------------|---------------------------|
|-------------------------|---------------------|---------------------------|
|-------6---5-------------|-------6---5---------|-------6---5---------------|
|-----4---4---6-7-7-8-4-5-|-----4---4---7-8-4-5-|-----4---4---6-7-7-8-4-5---|
|-5-7---------------------|-5-7-----------------|-5-7-----------------------|


 7/8                           5/16
  S S S S S S S S S S S S S S   S S S S S   S S S S S   S S S S S
|-----------------------------|-----------|-----------|------------|
|-----------------------------|-----------|-----------|------------|
|-----------------------------|-----------|-----------|------------|
|-------6---5-----------------|-----------|-----------|------------|
|-----4---4---7-8-4-5-6-7-3-4-|-7-4-6-4-0-|-7-4-6-4-0-|-7-4-6-4-0--|
|-5-7-------------------------|-----------|-----------|------------|


 6/16          5/16
  S S S S S S   S S S S S   S S S S S   S S S S S   S S S S S
|-------------|-----------|-----------|-----------|--------------|
|-------------|-----------|-----------|-----------|--------------|
|-------------|-----------|-----------|-----------|-------2-4----|
|-------2-4-5-|-7-4-6-4-0-|-7-4-6-4-0-|-7-4-6-4-0-|-3-4-6--------|
|-3-4-6-------|-----------|-----------|-----------|--------------|
|-------------|-----------|-----------|-----------|--------------|


             7/16            5/16        6/16
  S S S S S   S S S S S S S   S S S S S   S S S S S S
|-----------|---------------|-----------|-------------|
|-----------|---------------|-----------|-------2-3-5-|
|-5-2-4-2---|-5-2-4-2-4-2---|-5-2-4-2---|-2-4-5-------|
|---------3-|-------------3-|---------3-|-------------|
|-----------|---------------|-----------|-------------|
|-----------|---------------|-----------|-------------|


 5/16                                7/16
  S S S S S   S S S S S   S S S S S   S S S S S S S
|-----------|-----------|-----------|---------------|
|-6-3-5-----|-6-3-5-----|-6-3-5-----|---------------|
|-------6-3-|-------6-3-|-------6-3-|-5-6-5-3-------|
|-----------|-----------|-----------|---------6-4-3-|
|-----------|-----------|-----------|---------------|
|-----------|-----------|-----------|---------------|


 6/8
                        |-3-|
  E. E S E E E   E. E S S S S S S S S
|--------------|----------------------|
|--------------|----------------------|
|----4---3-1---|----4---3-4-3-1-------|
|-2----2-----4-|-2----2---------4-2---|
|--------------|--------------------4-|
|--------------|----------------------|


                7/8
                        |-3-|
  E. E S E E E   E. E S S S S S S S S S S
|--------------|----------------------------|
|--------------|----------------------------|
|----6---4-3---|----6---4-6-4-3-------------|
|-4----4-----6-|-4----4---------6-4---4-6---|
|--------------|--------------------7-------|
|--------------|----------------------------|


                                                   H.=H
 6/8
  E. E S E E E   E. E S S S S S S S   E. E S E E E   E. E S S S S S S S
|--------------|--------------------|--------------|---------------------|
|--------------|--------------------|--------------|---------------------|
|--------------|--------4-----------|--------------|--------1------------|
|----7---6-4---|----7-----7-6-4-----|----4---3-1---|----4-----4-3-1------|
|-5----6-----7-|-5----5---------7-4-|-2----2-----4-|-2----2---------4-2--|
|--------------|--------------------|--------------|---------------------|


              3/4
  Q.   E E E   q  q  q
|------------|----------*|
|------------|----------*|
|------------|----------*|
|------------|-2--2--2--*|
|-0----0-0-0-|----------*|
|------------|----------*|


Duration Legend
---------------
W - whole; H - half; Q - quarter; E - 8th; S - 16th; T - 32nd; X - 64th; a - acciaccatura
+ - note tied to previous; . - note dotted; .. - note double dotted
Uncapitalized letters represent notes that are staccato (1/2 duration)
Irregular groupings are notated above the duration line
Duration letters will always appear directly above the note/fret number it represents the
duration for.  Duration letters with no fret number below them represent rests.  Multi-
bar rests are notated in the form Wxn, where n is the number of bars to rest for.  Low
melody durations appear below the staff

Tablature Legend
----------------
 h   - hammer-on
 p   - pull-off
 b   - bend
 pb  - pre-bend
 r   - bend release (if no number after the r, then release immediately)
 /\  - slide into or out of (from/to "nowhere")
 s   - legato slide
 S   - shift slide
  - natural harmonic
[n]  - artificial harmonic
n(n) - tapped harmonic
 ~   - vibrato
 tr  - trill
 T   - tap
 TP  - trem. picking
 PM  - palm muting
\n/  - tremolo bar dip; n = amount to dip
 \n  - tremolo bar down
 n/  - tremolo bar up
/n\  - tremolo bar inverted dip
 =   - hold bend; also acts as connecting device for hammers/pulls
 <>  - volume swell (louder/softer)
 x   - on rhythm slash represents muted slash
 o   - on rhythm slash represents single note slash

Misc Legend
-----------
 |  - bar
||  - double bar
||o - repeat start
o|| - repeat end
*|  - double bar (ending)
 :  - bar (freetime)
 $  - Segno
 &  - Coda
Tempo markers -  = BPM(8/16=s8/s16), where s8 = swing 8ths, s16 = swing 16ths


*****************************************************************************************
* Generated using Power Tab Editor by B.S. Larsen - http://www.crosswinds.net/~powertab *
*****************************************************************************************
Comments