Dream Theater - Surrounded Chords & Tabs

 

Surrounded Chords & Tabs

Dream Theater Chords & Tabs

Version: 1 Type: Bass Tab 0 ratings
1 star 2 stars 3 stars 4 stars 5 stars
comments

Surrounded Bass Tab

Band- Dream Theater
Song- Surrounded

G--------------------|-------------------------|---------------------------|
D--------------------|-------------------------|---------------------------|
A------3~------3~----|--3~---------------------|---------------------3~----|
E--3~------3~-----3~-|---------------3~--------|----3~---------------------|
                      Morning comes too early   And nighttime falls too late

G-------------------------------------|------------------------------------|
D-------------------------------------|------------------------------------|
A--------------------------------3~~--|------------------------------------|
E-------5~---------------3~-----------|----5~------------------3~----------|
 And sometimes all I want to do is wait    The shadow I've been hinding in

G------------------------|--------------------|----------------------------|
D------------------------|--------------------|----------------------------|
A---2~-------------------|-----3~------3~-----|----2~----------------------|
E--------------------5~--|--------------------|-------------------------0~-|
  Has fled from me today    I know it's easier   To walk away than look it
							in the eye

G---------------------------------------|------------------------------------|
D---------------------------------------|------------------------------------|
A-----------------------2~-----------3~-|----------------2~---------------3~-|
E----5~---------------------------------|----5~------------------------------|
 But I will raise a shelter to the sky   And here beneath this star tonight I'll lie

G---------------------------------------------------------------------------|
D---------------------------------------------------------------------------|
A------------------2~--------------3~------------------5~-------------------|
E------5~-------------------------------------------------------------------|
  She will slowly yield the light as I awaken from the longest night


  This part, it stays only in "G"  until the FILL1
G--------------------------------------------------------------------------|
D--------------------------------------------------------------------------|
A--------------------------------------------------------------------------|
E--3---3-3-3~-----3---3-3-3~-----3---3-3-3~-----3---3-3-3~-----------------|


   Fill 1
G---------------|------------------------------------------------------------|
D----5-------5--|---5---------5------5-------5-----5---------5----5-------5--|
A--5---5--------|-----5----------------5-------------5--------------5--------|
E---------3-----|-------3--3-------------3-3-----------3--3-----------3-3----|
                   Dreams are shaking set sirens waking up tired eyes

G---------------------------------------------------------------------------|
D---5---------5------5-------5-----5---------5----5-------5-----5-------5---|
A-----5----------------5-------------5--------------5-------------5---------|
E-------3--3-------------3-3-----------3--3-----------3-3-----------3-3-----|
  With the light and memories all rush into his head

G----------------------------------------------------------------------------|
D---5------------------------------------------------------------------------|
A------5---------------------------------------------------------------------|
E----------3-3-3-3-3-3-3-3-3-3-3-3-3-3-3-3-3-3-3-3-3-3-3-3-3-3-3-3-3-3-3-3-3-|
  By a candle stands a mirror, of his heart and soul she dances

G---------------------------------------------------------------------------|
D---------------------------------------------------------------------------|
A---------------------------------------------------------------------------|
E--3-3-3-3-3-3-3-3-3-3-3-3-3-3-3-3-3-3-3-3-3-3-3--3-3-3-3-3-3-3-3-3-3-3-3---|
  She was dancing through the night above his bed

G---------------------------------------------------------------------------|
D---------------------------------------------------------------------------|
A-----------------------------5~--------------------------------------------|
E-----0~--------------------------------------------------------------------|
  And walking to the window, throws the shutters out against the wall

G--------------------------------------------------------------------------|
D------5------5-----5-----5----5----5----5---5-----------------------------|
A----------5-----------5----------5--------5-------------------------------|
E---3------------3-----------3---------3-----------0~~---------------------|

G-------------------------------------------------------------------------|
D-------------------------------------------------------------------------|
A-------------------------------------------------------------------------|
E--0~~~~------------------------------------0~~~~~~-----------------------|
  And from an ivory tower hears her call  "Let light surround you"

G--------------------------------------------------------------------------|
D----5---5---------5---5-----5----5--------5----5------5----5---5------5---|
A----------5-------------5----------5-------------5-----------5---5--------|
E--3---------3--3----------3----------3--3----------3---------------3------|


G--------------------------------------------------------------------------|
D----5---5---------5---5-----5----5--------5----5------5----5---5------5---|
A----------5-------------5----------5-------------5-----------5---5--------|
E--3---------3--3----------3----------3--3----------3---------------3------|
  It's been a long, long time

G--------------------------------------------------------------------------|
D----5---5---------5---5-----5----5--------5----5------5----5---5------5---|
A----------5-------------5----------5-------------5-----------5---5--------|
E--3---------3--3----------3----------3--3----------3---------------3------|
  He's had awhile to think it over, in the end he only sees the change
[ Tab from: http://www.guitartabs.cc/tabs/d/dream_theater/surrounded_btab.html ]
G--------------------------------------------------------------------------|
D----5---5---------5---5-----5----5--------5----5------5----5---5------5---|
A----------5-------------5----------5-------------5-----------5---5--------|
E--3---------3--3----------3----------3--3----------3---------------3------|
  Light to dark, dark to light, light to dark, dark to light

G---------------------------------------------------------------------------|
D---------------------------------------------------------------------------|
A---------------------------------------------------------------------------|
E--3-3-3-3-3-3-3-3-3-3-3-3-3-3-3-3-3-3-3-3-3-3-3-3-3-3-3-3-3-3-3-3-3-3-3----|
  Heaven must be more then this, when angels waken with a kiss

G-----------------------------------------------------------------------------|
D-----------------------------------------------------------------------------|
A-----------------------------------------------------------------------------|
E--3-3-3-3-3-3-3-3-3-3-3-3-3-3-3-3-3-3-3-3-3-3-3-3-3-3-3-3-3-3-3-3-3-3-3-3-3--|
  Sacred hearts won't take the pain, But mine will never be the same


G---------------------------------------------------------------------------|
D---------------------------------------------------------------------------|
A------------------------------5~~-------5-5-5-5-5-5-5-5-5-5-5-5-5-5--------|
E---------------------------------------------------------------------------|
  He stands before the window, his shadow slowly fading from the waaaaaaaaaaa

G---------------------------------------------------------------------------|
D----5------5-----5------5-----5-------5------------------------------------|
A---------5---5--------5---5---------5---5----5-5-5-5-7-7-------------------|
E--3------------3------------3-------------3--------------------------------|
 aaaaaaaaaaaaaaaaaaaaaaaaaaaaaaaaaaaaaaaaaaaaaaaaaaaaaaaaall (hehehe)


G---------------------------------------------------------------------------|
D---------------------------------------------------------------------------|
A-------7-7-5-7-------------------------------------------------------------|
E--0~-------------------------------0~-------3-3--3---3-3--3---3-3--3-------|
  And from an ivory tower hears her call  "Let the light surround you"


G---------------------------------------------------------------------------|
D---------------------------------------------------------------------------|
A--3-3-3-3-3-3-3-3-3-3-3-3--------------------------------------------------|
E---------------------------3-3--3--3-3--3---3-3--3--3-3--3---1-1--1--1-1-1-|


G---------------------------------------------------------------------------|
D---------------------------------------------------------------------------|
A-----------------------------3-3-3-3-3-3-3-3-3-----------------------------|
E---3-3--3---3-3--3---3-3--3---------------------3-3--3---3-3--3---3-3--3---|


G---------------------------------------------------------------------------|
D------3------3-------3-----------------------------------------------------|
A---------------------------------------------------------------------------|
E--1-1---1---1--1-1-----1-1-1---1-1-1-1------5~------------------------2----|
                  				 Once lost but I was found


G---------------------------------------------------------------------------|
D---------------------------------------------------------------------------|
A-----------5------------------------5~-------5~------4~--------------------|
E--2~----------2~-----------2~----------------------------------------------|
          When I heard the stained glass shatter all around me


G---------------------------------------------------------------------------|
D---------------------------------------------------------------------------|
A--4-4-----------3---3--2---2~----------------------------------------------|
E------0~---5-----------------------------------------5~--------------------|
		 I sent the spirits tumbling down the hill


G---------------------------------------------------------------------------|
D---------------------------------------------------------------------------|
A---------------------------5--------4--------------------------------------|
E-------------0-------------------------------5-----------------------------|
  But I will hold this one on high above me still


G--------------------------------------------------------------------------------|
D--------------------------------------------------------------------------------|
A----------------------2~--------------3~----------------------5~----------------|
E---5~---------------------------------------------------------------------0~----|
She whispers words to clear my mind, I once could see but now at last I'm blind


G---------------------------------------------------------------------------|
D---------------------------------------------------------------------------|
A-----3~----------------------3~-------2~-----------------------------------|
E-------------------------------------------------------------------0~------|
                 I know it easier to walk away than look it in the eye


G---------------------------------------------------------------------------|
D---------------------------------------------------------------------------|
A------------------------------------2~----3~-------------------------------|
E---------5~----------------------------------------------------------------|
      But I had given all that I could take

G---------------------------------------------------------------------------|
D---------------------------------------------------------------------------|
A----------------2~-----------3~--------------------------------------------|
E-----5~--------------------------------------------------------------------|
    And now I've only habits left to break

G--------------------------------------------------------------------------|
D--------------------------------------------------------------------------|
A------------------2~----------------------3~----------5~------------------|
E-----5~-----------------------------------------------------------5~------|
Comments