Dream Theater - Stream Of Consciousness Chords & Tabs

 

Stream Of Consciousness Chords & Tabs

Dream Theater Chords & Tabs

Version: 1 Type: Tab 0 ratings
1 star 2 stars 3 stars 4 stars 5 stars
comments

Stream Of Consciousness Tab

   
STREAM OF CONSCIOUSNESS
As recorded by Dream Theater
From the 2003 Album TRAIN OF THOUGHT



Music by John Myung, John Petrucci, Mike Portnoy & Jordan Rudess

Gtr I (Eb Ab Db Gb Bb Eb) - 'Clean Guitar - John Petrucci'
Gtr II (Eb Ab Db Gb Bb Eb) - 'Distorted Guitar 1 - John Petrucci'
Gtr III (Eb Ab Db Gb Bb Eb) - 'Distorted Guitar 2 - John Petrucci'
Gtr IV (Eb Ab Db Gb Bb Eb) - 'Keyboards - Jordan Rudess'
Gtr V (Eb Ab Db Gb Bb Eb) - 'Distorted Guitar 3 - John Petrucci'
Gtr VI (Ab Eb Ab Db Gb Bb Eb) - 'Piano - Jordan Rudess'


   Intro
    Moderately Q=118
    (D)                   (C)
   5/4
    Gtr I
    E E E E E E E E E E   E E E E E E E E E E  4x
||----------------------|----------------------||
||o---------------------|---------------------o||
||----3-2-3-2---3---2-3-|---3-2-3-2---3---2-3--||
||--0---------0---0-----|----------------------||
||o---------------------|-3---------3---3-----o||
||----------------------|----------------------||


  Slightly Faster Q=125
  D5                                   Csus2
  Gtrs II, III
    H.                  +H               H.                  +H
|------------------------------------|---3-------------------(3)----------|
|---3-------------------(3)----------|---3-------------------(3)----------|
|---2-------------------(2)----------|---5-------------------(5)----------|
|---0-------------------(0)----------|---5-------------------(5)----------|
|---0-------------------(0)----------|---3-------------------(3)----------|
|------------------------------------|------------------------------------|
|
| Gtr IV
|   E   E   E   Q    E   E    E   Q      E   E   E   Q    E   E    E   Q
|------17------18-------17-------18--|------18------17-------18-------17--|
|------------------------------------|------------------------------------|
|------14------15-------14-------15--|------15------14-------15-------14--|
|-(12)----(12)-----(12)-----(12)-----|-(14)----(14)-----(14)-----(14)-----|
|------------------------------------|------------------------------------|
|------------------------------------|------------------------------------|


  D5                                   Csus2
                                                                       PM|
    H.                  +H               H.                  +Q        E E
|------------------------------------|---3-------------------(3)------------|
|---3-------------------(3)----------|---3-------------------(3)------------|
|---2-------------------(2)----------|---5-------------------(5)------------|
|---0-------------------(0)----------|---5-------------------(5)-------5-5--|
|---0-------------------(0)----------|---3-------------------(3)-------3-3--|
|------------------------------------|--------------------------------------


    E   E   E   Q    E   E    E   Q      E   E   E   Q    E   E    E   Q
|------17------18-------17-------18--|------18------17-------18-------17----
|------------------------------------|--------------------------------------
|------14------15-------14-------15--|------15------14-------15-------14----
|-(12)----(12)-----(12)-----(12)-----|-(14)----(14)-----(14)-----(14)-------
|------------------------------------|--------------------------------------
|------------------------------------|--------------------------------------


  Bbsus2                               A5
                                                                       PM|
    H.                  +H               H.                  +Q        E E
|---1-------------------(1)----------|-------------------------------------|
|---1-------------------(1)----------|-------------------------------------|
|---3-------------------(3)----------|---2-------------------(2)-----------|
|---3-------------------(3)----------|---2-------------------(2)-------2-2-|
|---1-------------------(1)----------|---0-------------------(0)-------0-0-|
|------------------------------------|-------------------------------------|
|
|   E   E   E   Q    E   E    E   Q      E   E   E   Q    E   E    E   Q
|------17------15-------17-------15--|------15------13-------15-------13---|
|------------------------------------|-------------------------------------|
|------14------12-------14-------12--|------12------10-------12-------10---|
|-(12)----(12)-----(12)-----(12)-----|-(10)----(10)-----(10)-----(10)------|
|------------------------------------|-------------------------------------|
|------------------------------------|-------------------------------------|


  G5              F5                E5                A5
   Q.        +Q    E  +H              Q.         +Q    E  +H
|---------------------------------|------------------------------------||
|---------------------------------|------------------------------------||
|---------------------------------|--------------------2--(2)----------||
|--5---------(5)---3--(3)---------|---2----------(2)---2--(2)----------||
|--5---------(5)---3--(3)---------|---2----------(2)---0--(0)----------||
|--3---------(3)---1--(1)---------|---0----------(0)-------------------||
|
|  E   E  E   Q    E   E   E   Q      E   E   E   Q    E   E   E   Q
|-----13-----12-------12------10--|------------------------------------||
|---------------------------------|------15------14-------11------10---||
|-----10------9--------9-------7--|------------------------------------||
|-(8)----(8)------(7)-----(7)-----|------12------11--------8-------7---||
|---------------------------------|-(10)----(10)------(7)-----(7)------||
|---------------------------------|------------------------------------||


    D5    D+5   D5  D+5  C7    C6    C7  C6
    Gtr II
    PM  PM  PM|   PM     PM  PM  PM|   PM
    E E E E E E E E Q    E E E E E E E E Q
||---------------------|--------------------|
||o--------------------|--------------------|
||---------------------|--------------------|
||----7---8-----7---8--|---8---7-----8---7--|
||o-5-5-5-5-5-5-5-5-5--|-3-3-3-3-3-3-3-3-3--|
||---------------------|--------------------|
|
|   Gtr III
|   PM  PM  PM|   PM     PM  PM  PM|   PM
|   E E E E E E E E Q    E E E E E E E E Q
||---------------------|--------------------|
||o--------------------|--------------------|
||----7---7-----7---7--|---9---9-----9---9--|
||----7---8-----7---8--|---8---7-----8---7--|
||o-5---5---5-5---5----|--------------------|
||---------------------|-8---8---8-8---8----|


  D5    D+5   D5  D+5  C7    C6    C7  C6
  PM  PM  PM|   PM     PM  PM  PM|   PM
  E E E E E E E E Q    E E E E E E E E Q
|--------------------|--------------------|
|--------------------|--------------------|
|--------------------|--------------------|
|---7---8-----7---8--|---8---7-----8---7--|
|-5-5-5-5-5-5-5-5-5--|-3-3-3-3-3-3-3-3-3--|
|--------------------|--------------------|
|
| PM  PM  PM|   PM     PM  PM  PM|   PM
| E E E E E E E E Q    E E E E E E E E Q
|--------------------|--------------------|
|--------------------|--------------------|
|---7---7-----7---7--|---9---9-----9---9--|
|---7---8-----7---8--|---8---7-----8---7--|
|-5---5---5-5---5----|--------------------|
|--------------------|-8---8---8-8---8----|


  Bbmaj7 Bb6    BbmajBb6   Am7    Am+5  Am7  Am+5
  PM   PM   PM|    PM      PM   PM  PM|    PM
  E  E E  E E E  E E  Q    E  E E E E E  E E Q
|------------------------|----------------------|
|------------------------|----------------------|
|------------------------|----------------------|
|------------------------|----------------------|
|---12---10-----12---10--|---10---8-----10---8--|
|-6--6-6--6-6-6--6-6--6--|-5--5-5-5-5-5--5-5-5--|
|
| PM   PM   PM|    PM      PM   PM  PM|    PM
| E  E E  E E E  E E  Q    E  E E E E E  E E Q
|------------------------|----------------------|
|------------------------|----------------------|
|----7----7------7----7--|----5---5------5---5--|
|----7----5------7----5--|----5---3------5---3--|
|------------------------|----------------------|
|-6----6----6-6----6-----|-5----5---5-5----5----|


  Gm7   Gm6 Fmaj7 F6   Em7   Em6   A5
  PM  PM  PM|   PM     PM  PM  PM|   PM
  E E E E E E E E Q    E E E E E E E E Q
|--------------------|-----------------------||
|--------------------|----------------------o||
|--------------------|-----------------------||
|-------------2------|-------------2---2/----||
|---8---7---------5--|---5---4-----0---0----o||
|-3-3-3-3-3-1-1-1-1--|-0-0-0-0-0-0---0-------||
|
| PM  PM  PM|   PM     PM  PM  PM|   PM
| E E E E E E E E Q    E E E E E E E E Q
|--------------------|-----------------------||
|--------------------|----------------------o||
|---3---3-----2---2--|-----------------------||
|---3---2-----2---0--|---5---5-----2---2/----||
|--------------------|---5---4-----0---0----o||
|-3---3---3-1---1----|-0---0---0-0---0-------||


  D5                         C5
 6/4                        5/4
  Gtr III
  E  E E E E E E E E E E E   E E E E E E E E  E  E
  |  | | | | | | | | | | |   | | | | | | | |  |  |
  /  / / / / / / / / / / /   / / / / / / / /  /  /

             PM  PM      PM--|         PM  PM
  E  E E E E E E E E E E E   E E E E E E E E  E  E
|--------------------------|-----------------------|
|--------------------------|-----------------------|
|----3-2-3-2---3---2-3-2---|---3-2-3-2---3----2--3-|
|-0----------0---0-------0-|-----------------------|
|--------------------------|-3---------3---3-------|
|--------------------------|-----------------------|
|
| Gtr IV
| W.                         W               +Q
|--------------------------|-----------------------|
|-6------------------------|-5---------------(5)---|
|-7------------------------|-5---------------(5)---|
|-7------------------------|-5---------------(5)---|
|--------------------------|-----------------------|
|--------------------------|-----------------------|


  D5                         C5
 6/4                        5/4
  E  E E E E E E E E E E E   E E E E E E E E  E  E
  |  | | | | | | | | | | |   | | | | | | | |  |  |
  /  / / / / / / / / / / /   / / / / / / / /  /  /

  PM         PM  PM      PM--|         PM  PM
  E  E E E E E E E E E E E   E E E E E E E E  E  E
|--------------------------|------------------------|
|--------------------------|------------------------|
|----3-2-3-2---3---2-3-2---|---3-2-3-2---3----2--3--|
|-0----------0---0-------0-|------------------------|
|--------------------------|-3---------3---3--------|
|--------------------------|------------------------|
|
| W.                         W               +Q
|--------------------------|------------------------|
|-6------------------------|-5---------------(5)----|
|-7------------------------|-5---------------(5)----|
|-7------------------------|-5---------------(5)----|
|--------------------------|------------------------|
|--------------------------|------------------------|


  A5            Bb5
 6/4
  E  E E  E E E E  E E  E E E
  |  | |  | | | |  | |  | | |
  /  / /  / / / /  / /  / / /

              PM            PM
  E  E E  E E E E  E E  E E E
|-----------------------------|
|-----------------------------|
|-----------------------------|
|----3-2--3-2------3-2--3-2---|
|-0-----------0-1-----------1-|
|-----------------------------|
|
| E  E E  E E E E  E E  E E E
|-----------------------------|
|-----------------------------|
|---10-9-10-9-----10-9-10-9---|
|-7-----------7-8-----------8-|
|-----------------------------|
|-----------------------------|


  C5           G5              A5            Bb5
 5/4                          6/4
   E  E E  E E  E  E  E E  E   E  E E  E E E E  E E  E E E
   |  | |  | |  |  |  | |  |   |  | |  | | | |  | |  | | |
   /  / /  / /  /  /  / /  /   /  / /  / / / /  / /  / / /

                PM    PM                   PM
   E  E E  E E  E  E  E E  E   E  E E  E E E E  E E  E E E
|----------------------------|------------------------------|
|----------------------------|------------------------------|
|----------------------------|------------------------------|
|-----3-2--3-2-----3----2--3-|----3-2--3-2------3-2--3-2----|
|--3-------------------------|-0-----------0-1-----------1--|
|---------------3-----3------|------------------------------|
|
|  E  E E  E E  E  E  E E  E   E  E E  E E E E  E E  E E E
|----------------------------|------------------------------|
|----------------------------|------------------------------|
|----10-9-10-9----10----9-10-|---10-9-10-9-----10-9-10-9----|
|-10-------------------------|-7-----------7-8-----------8--|
|--------------10----10------|------------------------------|
|----------------------------|------------------------------|


  F5          E5            A5            A5
 5/4                       6/4
  E  E E  E E E  E E E  E   E  E E  E E E E  E E  E E E
  |  | |  | | |  | | |  |   |  | |  | | | |  | |  | | |
  /  / /  / / /  / / /  /   /  / /  / / o /  / /  / / o

              PM   PM
  E  E E  E E E  E E E  E   E  E E  E E E E  E E  E E E
|-------------------------|-----------------------------|
|-------------------------|-----------------------------|
|-------------------------|-----------------------------|
|----3-2--3-2----3---2--3-|----3-2--3-2------3-2--3-2---|
|-------------------------|-0-------------0-------------|
|-1-----------0----0------|-------------0-------------0-|
|
| E  E E  E E E  E E E  E   E  E E  E E E E  E E  E E E
|-------------------------|-----------------------------|
|-------------------------|-----------------------------|
|---10-9-10-9---10---9-10-|---10-9-10-9-----10-9-10-9---|
|-------------------------|-7-------------7-------------|
|-8-----------7----7------|-------------7-------------7-|
|-------------------------|-----------------------------|


  A5              A5
  E  E  E  E  E E E  E  E  E  E E
  |  |  |  |  | | |  |  |  |  | |
  /  /  /  /  / o /  /  /  /  / o

  E  E  E  E  E E E  E  E  E  E E
|---------------------------------||
|---------------------------------||
|----3--2--3--2------3--2--3--2---||
|---------------------------------||
|-0---------------0---------------||
|---------------0---------------0-||
|
| E  E  E  E  E E E  E  E  E  E E
|---10--9-10--9-----10--9-10--9---||
|---11-10-11-10-----11-10-11-10---||
|---------------------------------||
|-7---------------7---------------||
|---------------7---------------7-||
|---------------------------------||


  D5    D+5   D5  D+5  C7    C6    C7  C6
 5/4
  PM  PM  PM|   PM     PM  PM  PM|   PM
  E E E E E E E E Q    E E E E E E E E Q
|--------------------|--------------------|
|--------------------|--------------------|
|--------------------|--------------------|
|---7---8-----7---8--|---8---7-----8---7--|
|-5-5-5-5-5-5-5-5-5--|-3-3-3-3-3-3-3-3-3--|
|--------------------|--------------------|
|
| Gtr III
| PM  PM  PM|   PM     PM  PM  PM|   PM
| E E E E E E E E Q    E E E E E E E E Q
|--------------------|--------------------|
|--------------------|--------------------|
|---7---7-----7---7--|---9---9-----9---9--|
|---7---8-----7---8--|---8---7-----8---7--|
|-5---5---5-5---5----|--------------------|
|--------------------|-8---8---8-8---8----|


  D5    D+5   D5  D+5  C7    C7    C7  C6
  PM  PM  PM|   PM     PM  PM  PM|   PM
  E E E E E E E E Q    E E E E E E E E Q
|--------------------|----------------------|
|--------------------|----------------------|
|--------------------|----------------------|
|---7---8-----7---8--|---8---7-----8---7----|
|-5-5-5-5-5-5-5-5-5--|-3-3-3-3-3-3-3-3-3----|
|--------------------|----------------------|
|
| PM  PM  PM|   PM     PM  PM  PM|   PM
| E E E E E E E E Q    E E E E E E E E Q
|--------------------|----------------------|
|--------------------|----------------------|
|---7---7-----7---7--|---9---9-----9---9----|
|---7---8-----7---8--|---8---7-----8---7----|
|-5---5---5-5---5----|----------------------|
|--------------------|-8---8---8-8---8------|


  Bbmaj7 Bb6    BbmajBb6   Am7    Am+5  Am7  Am+5
  PM   PM   PM|    PM      PM   PM  PM|    PM
  E  E E  E E E  E E  Q    E  E E E E E  E E Q
|------------------------|----------------------|
|------------------------|----------------------|
|------------------------|----------------------|
|------------------------|----------------------|
|---12---10-----12---10--|---10---8-----10---8--|
|-6--6-6--6-6-6--6-6--6--|-5--5-5-5-5-5--5-5-5--|
|
| PM   PM   PM|    PM      PM   PM  PM|    PM
| E  E E  E E E  E E  Q    E  E E E E E  E E Q
|------------------------|----------------------|
|------------------------|----------------------|
|----7----7------7----7--|----5---5------5---5--|
|----7----5------7----5--|----5---3------5---3--|
|------------------------|----------------------|
|-6----6----6-6----6-----|-5----5---5-5----5----|


  Gm7   Gm6 Fmaj7 F6   Em7   Em6   A5
  PM  PM  PM|   PM     PM  PM  PM|   PM
  E E E E E E E E Q    E E E E E E E E Q
|--------------------|---------------------||
|--------------------|---------------------||
|--------------------|---------------------||
|-------------2------|-------------2---2---||
|---8---7---------5--|---5---4-----0---0---||
|-3-3-3-3-3-1-1-1-1--|-0-0-0-0-0-0---0-----||
|
| PM  PM  PM|   PM     PM  PM  PM|   PM
| E E E E E E E E Q    E E E E E E E E Q
|--------------------|---------------------||
|--------------------|---------------------||
|---3---3-----2---2--|---------------------||
|---3---2-----2---0--|---5---5-----2---2---||
|--------------------|---5---4-----0---0---||
|-3---3---3-1---1----|-0---0---0-0---0-----||


    E5          F5
   4/4
    Gtr III
     Q.          E  +H
     |           |   |
     /           /   /

     Q.          E  +H
||------------------------------------|
||o-----------------------------------|
||------------------------------------|
||------------------------------------|
||o--2-----------3--(3)---------------|
||---0-----------1--(1)---------------|
|
|   Gtr IV
|    E.  S  +E   E  +E   E  +E   S  S
||------------------------------------|
||o-----------------------------------|
||--------------15-(15)-14-(14)-14-15-|
||--14--15-(15)-----------------------|
||o-----------------------------------|
||------------------------------------|


  G5             A5                          E5          F5
   Q.             E  +H                       Q.          E  +H
   |              |   |                       |           |   |
   /              /   /                       /           /   /

   Q.             E  +H                       Q.          E  +H
|------------------------------------------|-------------------------------
|------------------------------------------|--------------------------------
|------------------------------------------|-------------------------------
|------------------------------------------|--------------------------------
|--5--------------7--(7)-------------------|--2-----------3--(3)------------
|--3--------------5--(5)-------------------|--0-----------1--(1)------------

|  E   S  S S  S  E  +S   e  S  S  S  S  S    E.  S  +E   E  +E   E  +E   S  S
|--------12---13-12-(12)-------------------|--------------------------------
|-14--15-----------------15-14-------------|--------------------------------
|------------------------------15-14-12----|-------------15-(15)-14-(14)-14-
|---------------------------------------15-|-14--15-(15)--------------------
|------------------------------------------|--------------------------------
|------------------------------------------|--------------------------------


  1.                            2.
  C#5            D5              G5X E5VII   F5VD5I
   Q.             E  +H           E.  S  +E   E  H
   |              |   |           |   |   |   |  |
   /              /   /           /   /   /   /  /

   ~~~
   Q.             E  +H           E.  S  +E   E  H
|-----------------------------||----------------------||
|----------------------------o||----------------------||
|-----------------------------||----------------------||
|-----------------7--(7)------||-/5-------------------||
|--4--------------5--(5)-----o||------7--(7)--8--5----||
|-----------------------------||----------------------||
|
|  E   S  S S  S  E  +Q.   E      E.  S  +E   E  H
|--------12---13--------------||-15--12-(12)-13-------||
|-14--15---------15-(15)-----o||----------------15----||
|-----------------------------||----------------------||
|-----------------------------||----------------------||
|----------------------------o||----------------------||
|-----------------------------||----------------------||


    N.C.
    Gtrs II, III
              ~~~~~~
    E. S +E   E +E  E E S S
||--------------------------|
||o-------------------------|
||--------------------------|
||--------------------------|
||o-------------------------|
||--0--1-(1)-/6-(6)-5---5-6-|
|
|   E. S +E   E +E  E E S S
||--------------------------|
||o-------------------------|
||------------3-(3)-2---2-3-|
||--2--3-(3)----------------|
||o-------------------------|
||--------------------------|


                                          ~~~~~~
  E S S S S E +S  e S S S S S   E. S +E   E +E  E E S S
|-----------------------------|--------------------------|
|-----------------------------|--------------------------|
|-----------------------------|--------------------------|
|-----------------------------|--------------------------|
|-4-5-7---8-7-(7)-5-4---------|--------------------------|
|---------------------6-5-3-1-|-0--1-(1)-/6-(6)-5---5-6--|
|
| E S S S S E +S  e S S S S S   E. S +E   E +E  E E S S
|-----0---1-0-(0)-------------|--------------------------|
|-2-3-------------3-2---------|--------------------------|
|---------------------3-2-0---|-----------3-(3)-2---2-3--|
|---------------------------3-|-2--3-(3)-----------------|
|-----------------------------|--------------------------|
|-----------------------------|--------------------------|


  1.                          2.
  N.C.
                   ~~~~~~~               ~~~~~~
   E S S +S  S E S E. +Q       E S S S S E +Q   S e S
|---------------------------||------------------------||
|--------------------------o||------------------------||
|---------------------------||------------------------||
|-/5-5-2-(2)-2-3-3----------||------------------------||
|------------------5--(5)--o||-4-5-7---8-5-(5)--3-----||
|---------------------------||--------------------6-5-||
|
|  E S S +S  S E S E. +Q       E S S S S E +Q   S e S
|--3-3-0-(0)-0-1-1----------||-----0---1--------------||
|------------------3--(3)--o||-2-3-------3-(3)--1-----||
|---------------------------||--------------------3-2-||
|---------------------------||------------------------||
|--------------------------o||------------------------||
|---------------------------||------------------------||


 Guitar Solo
    N.C.
                        ~~~~~~~~~~
     E.       S  +E     E     +E     E   E     S  S
|---------------------------------------------------|
|---------------------------------------------------|
|---------------------------------------------------|
|---------------------------------------------------|
|---------------------------------------------------|
|----0--------1--(1)---/6-----(6)----5---------5--6-|
|
|    S   S S  S   S  S  S  S   S   e   S S  S  S  S
|---10--10-x-10------x-10-10---x--10---x-x--x-10-10-|
|---10--10-x-10------x-10-10---x--10---x-x--x-10-10-|
|---------------------------------------------------|
|---------------------------------------------------|
|---------------------------------------------------|
|---------------------------------------------------|
|
| Gtr V
|             ~~~~~~~~~~~~~~~~~~~~
| a  E.       S  +Q           +Q         S  S  S  S
|---------------------------------------------------|
|-8s10-------10-(10)---------(10)--------------8-10-|
|----------------------------------------9-10-------|
|---------------------------------------------------|
|---------------------------------------------------|
|---------------------------------------------------|


                                                                                   ~~~~~~~~~~
   E     S  S   S   S     E    +S       e       S S S    S  S    E.       S +E     E    +E      E   E    S  S
|-------------------------------------------------------------|------------------------------------------------|
|-------------------------------------------------------------|------------------------------------------------|
|-------------------------------------------------------------|------------------------------------------------|
|-------------------------------------------------------------|------------------------------------------------|
|--4-----5--7-------8-----7----(7)------5-------4-------------|------------------------------------------------|
|-------------------------------------------------6-5----3--1-|--0--------1-(1)---/6----(6)-----5--------5--6--|
|
|  S   S S  S   S   S     S  S  S       e       S S S    S  S    S   S S  S  S  S  S  S  S    e   S S S  S  S
|-10--10-x-10-------x----10-10--x------10-------x-x-x---10-10-|-10--10-x-10-----x-10-10--x---10---x-x-x-10-10--|
|-10--10-x-10-------x----10-10--x------10-------x-x-x---10-10-|-10--10-x-10-----x-10-10--x---10---x-x-x-10-10--|
|-------------------------------------------------------------|------------------------------------------------|
|-------------------------------------------------------------|------------------------------------------------|
|-------------------------------------------------------------|------------------------------------------------|
|-------------------------------------------------------------|------------------------------------------------|
|
|                                                                ~~~
|  E.       S  +S   T  T  E     S      +S   +E    E   a  E       H                      +Q          S S  S  S
|-------------------------------------------------------------|------------------------------------------------|
|-11-------10-(10)-11p10--8-----------------------8---8s10----|--8----------------------(8)\-------------5--6--|
|------------------------------10b12==(10)r(10)---------------|-------------------------------------6-7--------|
|-------------------------------------------------------------|------------------------------------------------|
|-------------------------------------------------------------|------------------------------------------------|
|-------------------------------------------------------------|------------------------------------------------|


  N.C.
                              ~~~~~~~~~                                 ~~~~~~~~~~
   E    S  S +S  S  E     S   E.   +Q                E.       S  +E     E     +E     E   E     S  S
|-----------------------------------------------|---------------------------------------------------|
|-----------------------------------------------|---------------------------------------------------|
|-----------------------------------------------|---------------------------------------------------|
|-/5----5--2-(2)-2--3-----3---------------------|---------------------------------------------------|
|-----------------------------5----(5)----------|---------------------------------------------------|
|-----------------------------------------------|----0--------1--(1)---/6-----(6)----5---------5--6-|
|
|  S  S S  S  S  S  S  S  S   e  S  S   S  S  S      S   S S  S   S  S  S  S   S   e   S S  S  S  S
|-10-10-x-10-----x-10-10--x--10--x--x---x-10-10-|---10--10-x-10------x-10-10---x--10---x-x--x-10-10-|
|-10-10-x-10-----x-10-10--x--10--x--x---x-10-10-|---10--10-x-10------x-10-10---x--10---x-x--x-10-10-|
|-----------------------------------------------|---------------------------------------------------|
|-----------------------------------------------|---------------------------------------------------|
|-----------------------------------------------|---------------------------------------------------|
|-----------------------------------------------|---------------------------------------------------|
|
|                   ~~~~~~~~~                                 ~~~~~~~~~~~~~~~~~~~~
|  E    S  S +S  S  E    +Q         S   E     S   a  E.       S  +Q           +Q         S  S  S  S
|-----------------------------------------------|---------------------------------------------------|
|--5----------------3----(3)------------------8-|-8s10-------10-(10)---------(10)--------------8-10-|
|-------7--6-(6)S3------------------9--10-------|----------------------------------------9-10-------|
|-----------------------------------------------|---------------------------------------------------|
|-----------------------------------------------|---------------------------------------------------|
|-----------------------------------------------|---------------------------------------------------|


    E     S  S   S   S  E    +S   e  S   S   S   S  S
|------------------------------------------------------|
|------------------------------------------------------|
|------------------------------------------------------|
|------------------------------------------------------|
|---4-----5--7-------8--7----(7)--5--4-----------------|
|----------------------------------------6---5---3--1--|
|
|   S   S S  S   S   S  S  S  S   e  S   S   S   S  S
|--10--10-x-10-------x-10-10--x--10--x---x---x--10-10--|
|--10--10-x-10-------x-10-10--x--10--x---x---x--10-10--|
|------------------------------------------------------|
|------------------------------------------------------|
|------------------------------------------------------|
|------------------------------------------------------|
|
|   E.       S  +S   S  E     E.     S  +S   E.
|------------------------------------------------------|
|-/14-------11-(11)-14s10----\8-----10-(10)-11---------|
|------------------------------------------------------|
|------------------------------------------------------|
|------------------------------------------------------|
|------------------------------------------------------|


  N.C.
                       ~~~~~~~~~~~
    E.       S  +E     E     +E      E    E     S  S
|----------------------------------------------------|
|----------------------------------------------------|
|----------------------------------------------------|
|----------------------------------------------------|
|----------------------------------------------------|
|---0--------1--(1)---/6-----(6)-----5----------5--6-|
|
|   S   S S  S   S  S  S  S   S    e   S  S  S  S  S
|--10--10-x-10------x-10-10---x---10---x--x--x-10-10-|
|--10--10-x-10------x-10-10---x---10---x--x--x-10-10-|
|----------------------------------------------------|
|----------------------------------------------------|
|----------------------------------------------------|
|----------------------------------------------------|
|
|            ~~~~~~~
|   E.       S  +Q           +E      E    S  S  S  S
|----------------------------------------------------|
|-/14-------14-(14)---------(14)\--------------14-15-|
|----------------------------------------14-15-------|
|----------------------------------------------------|
|----------------------------------------------------|
|----------------------------------------------------|


                        ~~~~~~~~~
   E        S  S  S  S  E    +Q       S e        S
|--------------------------------------------------||
|--------------------------------------------------||
|--------------------------------------------------||
|--------------------------------------------------||
|--4--------5--7-----8--5----(5)------3------------||
|---------------------------------------6--------5-||
|
|  S  S     S  S  S  S  S  S  S   e S S S   S    S
|-10-10-----x-10-----x-10-10--x--10-x-x-x--10---10-||
|-10-10-----x-10-----x-10-10--x--10-x-x-x--10---10-||
|--------------------------------------------------||
|--------------------------------------------------||
|--------------------------------------------------||
|--------------------------------------------------||
|
|                             ~~~
|  S  T  T  S  S  S  S  S  S  Q.           +E
|-------------------------15-17-----------(17)\----||
|-17-15p14-15-17-18-17-18--------------------------||
|--------------------------------------------------||
|--------------------------------------------------||
|--------------------------------------------------||
|--------------------------------------------------||


 Synth Solo
  E5                F5
  Gtrs II, III
  Q.                 E  +H
  |                  |   |
  /                  /   /

  Gtr IV
  S   S  S  S  S  S  E  +E    Q    S  S
|---------------------------------------|
|----------------15-17-(17)--15---15-17-|
|-------14-15-17----15-(15)-(15)--------|
|----17---------------------------------|
|---------------------------------------|
|---------------------------------------|


  G5             A5                          Bb5               C#5
   Q.             E  +H                      Q.                 E  +H
   |              |   |                      |                  |   |
   /              /   /                      /                  /   /

   E   S  S S  S  E  +S   e  S  S  S  S  S   S   S  S  S  S  S  E  +E    Q     E
|-----15-17---18-17-(17)-15----------------|---------------------------------------|
|-18------------------------18-17-15-------|----------------15-17-(17)--18----20---|
|-15-------------15-(15)-------------17-15-|-------14-15-17----18-(18)-(18)--(18)--|
|------------------------------------------|----17-------------19-(19)-(19)--(19)--|
|------------------------------------------|---------------------------------------|
|------------------------------------------|---------------------------------------|


  D5             E5VII   A5XIIE5                F5
   Q.            E  +Q   Q    Q.                 E  +H
   |             |   |   |    |                  |   |
   /             /   /   /    /                  /   /

   S    S    Q.     +H        S   S  S  S  S  S  E  +E    Q    S  S
|---------------------------|---------------------------------------|
|-18---17-------------------|----------------15-17-(17)--15---15-17-|
|-----------19-----(19)-----|-------14-15-17----15-(15)-(15)--------|
|-19--(19)-(19)----(19)-----|----17---------------------------------|
|---------------------------|---------------------------------------|
|---------------------------|---------------------------------------|


  G5             A5
   Q.             E  +H
   |              |   |
   /              /   /

   E   S  S S  S  E  +S   e  S  S  S  S  S
|-----15-17---18-17-(17)-15----------------|
|-18------------------------18-17-15-------|
|-15-------------15-(15)-------------17-15-|
|------------------------------------------|
|------------------------------------------|
|------------------------------------------|


  Bb5               C5                   D5
  Q.                 E  +H                W
  |                  |   |                |
  /                  /   /                /

  S   S  S  S  S  S  E  +E    Q     E     S   S    Q.    +H
|--------------------------------------|------------------------||
|----------------15-17-(17)--18----20--|-18--17-----------------||
|-------14-15-17----17-(17)-(17)--(17)-|----------19----(19)----||
|----17--------------------------------|-19-(19)-(19)---(19)----||
|--------------------------------------|------------------------||
|--------------------------------------|------------------------||


    A5
    Gtrs II, III
     E.  S Q         S   e  S E.  S
||----------------------------------|
||o---------------------------------|
||---2-------------------2--2-2-----|
||---2-------------------2--2-2-----|
||o--0-------------------0--0-0-----|
||----------------------------------|
|
|   Gtrs I, IV
|    E.  S S  S  E  +S   e  S E.  S
||----------------------------------|
||o-10-------10-11-(11)-------------|
||------12--------------------9-----|
||----------------------11-12----12-|
||o---------------------------------|
||----------------------------------|


  E    S S   S  E.     H                 E.  S Q         S   e  S E.  S
|-------------------------------------|----------------------------------|
|-------------------------------------|----------------------------------|
|------2-2---2--2---------------------|--2-------------------2--2-2------|
|------2-2---2--2---------------------|--2-------------------2--2-2------|
|------0-0---0--0---------------------|--0-------------------0--0-0------|
|-------------------------------------|----------------------------------|
|
| S S  E    +S  e   S  E  S S S  e  S    E.  S S  S  E  +S   e  S E.  S
|-------------------------------------|----------------------------------|
|-------------------------------------|-10-------10-11-(11)--------------|
|---9-10---(10)-9--10-12-10-9---------|-----12--------------------9------|
|-------------------------------12-11-|---------------------11-12----12--|
|-------------------------------------|----------------------------------|
|-------------------------------------|----------------------------------|


  1.
  A5
                     |-3-|  |--3--|
  E    E  +S  E.     S S S  S S   S S  S  e
|--------------------------------------------||
|-------------------------------------------o||
|------2--(2)---------------0-------0--2--3--||
|------2--(2)-----------------2h==3----------||
|------0--(0)--------0h1h3------------------o||
|--------------------------------------------||
|
| S S  E  +S  e   S  E      S   S   S  S  E
|--------------------------------------------||
|-------------------------------------11----o||
|---9-10-(10)-9--10-12-----10---9--------12--||
|--------------------------------------------||
|-------------------------------------------o||
|--------------------------------------------||


 2.
                     |-3-|  |--3--|
  E    E  +S  E.     S S S  S S   S S  S  e
|-------------------------------------------||
|-------------------------------------------||
|------2--(2)-----------------------0--2--3-||
|------2--(2)------------3--0h2h==3---------||
|------0--(0)--------0h1--------------------||
|-------------------------------------------||
|
| S S  E  +S  e   S  E      S   S   S  S  E
|-------------------------------------------||
|-------------------------------------11----||
|---9-10-(10)-9--10-12-----10---9--------12-||
|-------------------------------------------||
|-------------------------------------------||
|-------------------------------------------||


    (A)
     S  S S  S S  S  S S   S   S S  S S  S S  S
||----------------------------------------------|
||o---------------------------------------------|
||----------------------------------------------|
||----------------------------------------------|
||o-12--0-0-10-0-12-13-0---0---4-0--5-7--0-0--5-|
||----------------------------------------------|
|
|    E.      S S  S  E    +S   e    S E.      S
||----------------------------------------------|
||o-10-----------10-11---(11)-------------------|
||----------12------------------------9---------|
||----------------------------11---12--------12-|
||o---------------------------------------------|
||----------------------------------------------|


  S S  S S   S  S S  S  S S  S S S  S S  S
|-------------------------------------------|
|-------------------------------------------|
|-------------------------------------------|
|-------------------------------------------|
|-0-7--8-0---0--7-0--8-10-0--8-7-0--5-0--4--|
|-------------------------------------------|
|
| S S  E    +S  e    S  E    S S S  e    S
|-------------------------------------------|
|-------------------------------------------|
|---9-10---(10)-9---10-12---10-9------------|
|----------------------------------12---11--|
|-------------------------------------------|
|-------------------------------------------|


  (A)
   S  S S  S S  S  S S   S   S S  S S  S S  S
|---------------------------------------------|
|---------------------------------------------|
|---------------------------------------------|
|---------------------------------------------|
|-12--0-0-10-0-12-13-0---0---4-0--5-7--0-0--5-|
|---------------------------------------------|
|
|  E.      S S  S  E    +S   e    S E.      S
|---------------------------------------------|
|-10-----------10-11---(11)-------------------|
|---------12------------------------9---------|
|---------------------------11---12--------12-|
|---------------------------------------------|
|---------------------------------------------|


  S S  S S   S  S S  S  S S  S S S  S  S S
|-------------------------------------------||
|------------------------------------------o||
|-------------------------------------------||
|-------------------------------------------||
|-0-7--8-0---0--7-0--8-10-0--8-7-0-13-10-0-o||
|-------------------------------------------||
|
| S S  E    +S  e    S  E    S S S  S  E
|-------------------------------------------||
|----------------------------------11------o||
|---9-10---(10)-9---10-12---10-9------12----||
|-------------------------------------------||
|------------------------------------------o||
|-------------------------------------------||


  Asus4          Gm6          Em6    F6             (C#)    (D)    Dm
  Gtr VI
    E.  S +E      E  +S  E.   Q      E.     S +E    E   +S  E.     E   E
|----------------------------------|---------------------------------------|
|---3---3-(3)-----5--(5)-5----2----|-3------3-(3)--------------------------|
|---2---2-(2)-----3--(3)-3----0----|-2------2-(2)------------------2---2---|
|---2---2-(2)-----5--(5)-5----2----|-3------3-(3)------------------3---3---|
|---0---0-(0)----------------------|----------------4---(4)-5------5---5---|
|-----------------3--(3)-3----0----|-1------1-(1)--------------------------|
|----------------------------------|----------------4---(4)-5------5---5---|
|
| Gtr II
|                 ~~~~~~~~    ~~          ~~~~~~~~
|   E.  S  S   S  E  +S  e  S E. S   S  S E   +S  e   S  E     S S S e   S
|----------------------------------|---------------------------------------|
|-/10---------10-11-(11)s2--3-5--3-|----5-6---(6)-5---6--8-----6-5---------|
|------12--------------------------|---------------------------------7---6-|
|----------------------------------|---------------------------------------|
|----------------------------------|---------------------------------------|
|----------------------------------|---------------------------------------|


  Asus4          Bbmaj7       Em6add1F6     Em6add11Dm
    E.  S +E      E  +S  E.   Q      E.     S +E    E   +Q      Q
|---5---5-(5)-----5--(5)-5----5----|-5------5-(5)---5---(5)-----5-------|
|---5---5-(5)-----6--(6)-6----5----|-6------5-(5)---3---(3)-----3-------|
|---7---7-(7)-----7--(7)-7----6----|-7------6-(6)-----------------------|
|-----------------------------5----|--------5-(5)---3---(3)-----3-------|
|----------------------------------|------------------------------------|
|---5---5-(5)-----6--(6)-6----0----|--------0-(0)-----------------------|
|----------------------------------|-8--------------5---(5)-----5-------|
|
|                 ~~~~~~~~    ~~          ~~~~~~~~
|   E.  S  S   S  E  +S  e  S E. S   S  S E   +S  e   S  E  S S S  S E
|----------------------------------|------------------------------------|
|-/10---------10-11-(11)s2--3-5--3-|----5-6---(6)-5---6--8--6-5---11-8--|
|------12--------------------------|------------------------------------|
|----------------------------------|------------------------------------|
|----------------------------------|------------------------------------|
|----------------------------------|------------------------------------|


  Asus4          Gm6          Em6    F6               (C#)     (D)     Dm
    E.  S +E      E  +S  E.   Q      E.      S  +E    E    +S  E.      E    E
|----------------------------------|--------------------------------------------|
|---3---3-(3)-----5--(5)-5----2----|-3-------3--(3)-----------------------------|
|---2---2-(2)-----3--(3)-3----0----|-2-------2--(2)--------------------2----2---|
|---2---2-(2)-----5--(5)-5----2----|-3-------3--(3)--------------------3----3---|
|---0---0-(0)----------------------|------------------4----(4)-5-------5----5---|
|-----------------3--(3)-3----0----|-1-------1--(1)-----------------------------|
|----------------------------------|------------------4----(4)-5-------5----5---|
|
|                 ~~~~~~~~    ~~           ~~~~~~~~~
|   E.  S  S   S  E  +S  e  S E. S   S  S  E    +S  e    S  E      S S S  e   S
|----------------------------------|--------------------------------------------|
|-/10---------10-11-(11)s2--3-5--3-|----5--6----(6)-5----6--8------6-5----------|
|------12--------------------------|--------------------------------------7---6-|
|----------------------------------|--------------------------------------------|
|----------------------------------|--------------------------------------------|
|----------------------------------|--------------------------------------------|
|
| Gtr III
|                 ~~~~~~~~    ~~           ~~~~~~~~~
|   E.  S  S   S  E  +S  e  S E. S   S  S  E    +S  e    S  E      S S S  e   S
|----------------------------------|--------------------------------------------|
|-/14---------14-15-(15)s5--6-8--6-|----8-10---(10)-8---10-11-----10-8----------|
|------15--------------------------|-------------------------------------10---9-|
|----------------------------------|--------------------------------------------|
|----------------------------------|--------------------------------------------|
|----------------------------------|--------------------------------------------|


  Asus4          Bbmaj7         Em6add11 F6       Em6add11  Dm
    E.  S +E      E  +S   E.     Q       E.       S  +E     E    +H
|---5---5-(5)-----5--(5)--5------5-----|-5--------5--(5)----5----(5)----------------||
|---5---5-(5)-----6--(6)--6------5-----|-6--------5--(5)----3----(3)----------------||
|---7---7-(7)-----7--(7)--7------6-----|-7--------6--(6)----------------------------||
|--------------------------------5-----|----------5--(5)----3----(3)----------------||
|--------------------------------------|--------------------------------------------||
|---5---5-(5)-----6--(6)--6------0-----|----------0--(0)----------------------------||
|--------------------------------------|-8------------------5----(5)----------------||
|
|                 ~~~~~~~        ~~~            ~~~~~~~~~
|   E.  S  S   S  E  +S   e   S  E.  S   S   S  E    +S   e    S  E   S  S S  S  E
|--------------------------------------|-------------------------------------15-----||
|-/10---------10-11-(11)-10--11-14-----|----14-15---(15)-14---15-17--15-14------17--||
|------12---------------------------15-|--------------------------------------------||
|--------------------------------------|--------------------------------------------||
|--------------------------------------|--------------------------------------------||
|--------------------------------------|--------------------------------------------||
|
|                 ~~~~~~~        ~~~            ~~~~~~~~~
|   E.  S  S   S  E  +S   e   S  E.  S   S   S  E    +S   e    S  E   S  S S  S  E
|--------------------------------------|-------------------------15----------18-15--||
|-/14---------14-15-(15)-14--15-17--15-|----17-18---(18)-17---18-----18-17----------||
|------15------------------------------|--------------------------------------------||
|--------------------------------------|--------------------------------------------||
|--------------------------------------|--------------------------------------------||
|--------------------------------------|--------------------------------------------||


 Guitar Solo
  Dm                              C
 5/8
   E.             E          S     E          E
|--------------------------------------------------------|
|--3--------------3----------------1----------1----------|
|--2--------------2----------------0----------0----------|
|--3--------------3----------------2----------2----------|
|--5--------------5----------0-----3----------3----------|
|--------------------------------------------------------|
|--------------------------------------------------------|
|
| Gtr V
|  |-----------10:6-------------|  |---------7---------|
|  S  S  S  S  S  S  S  S  S    S  S  S  S  S    S  S  S
|-10s17-17-17-17-17-17-17-17---17-17-17-17S22s==20-20p18-|
|--------------------------------------------------------|
|--------------------------------------------------------|
|--------------------------------------------------------|
|--------------------------------------------------------|
|--------------------------------------------------------|


  Bb                             Am
   E.            E          S     E                 E
|-----------------------------------------------------------|
|-----------------------------------------------------------|
|--3-------------3----------------2-----------------2-------|
|--3-------------3----------------2-----------------2-------|
|--5-------------5----------------3-----------------3-------|
|--6-------------6----------1-----5-----------------5-------|
|-----------------------------------------------------------|
|
|  |------------9:6------------|                    |--3--|
|  S  S  S  S  S    S  S  S    S  T  T  X  X  X  X  S  S  S
|-20h22p20p18-20p==18p17h18---20p18s15h18-18p17h18p17-15-17-|
|-----------------------------------------------------------|
|-----------------------------------------------------------|
|-----------------------------------------------------------|
|-----------------------------------------------------------|
|-----------------------------------------------------------|


  Gm                                     F
 6/8
   E.                    E          S     E        E        E
|----------------------------------------------------------------------------|
|----------------------------------------------------------------------------|
|--0---------------------0---------------------------------------------------|
|--0---------------------0----------------3--------3--------3----------------|
|--1---------------------1----------------3--------3--------3----------------|
|--3---------------------3----------------5--------5--------5----------------|
|-----------------------------------5-----8--------8--------8----------------|
|
|  |---------------10:6----------------|  |--------------9:6---------------|
|  S   T  T  T  T  S  S  S  S  S  S    S  S  S  S  S  S  S  T  T  T  T  T  T
|-18--18p17------------------------------------------------------------------|
|-----------20p18-22p20p18-20h22p20p==18-18p17p15h17h18-15-17-17-------15-15-|
|----------------------------------------------------------------17-17-------|
|----------------------------------------------------------------------------|
|----------------------------------------------------------------------------|
|----------------------------------------------------------------------------|


  E                                                A7sus4        A7
   E.                    E                 S        E             E          E
|--0---------------------0------------------------------------------------------------|
|--0---------------------0--------------------------3-------------2----------2--------|
|--1---------------------1--------------------------0-------------0----------0--------|
|--2---------------------2--------------------------2-------------2----------2--------|
|--2---------------------2--------------------------0-------------0----------0--------|
|--0---------------------0-----------------0------------------------------------------|
|-------------------------------------------------------------------------------------|
|
|  |---------------------9:6---------------------|
|  T   T  S  S  T  T  T  T  T  T  T  T  T  T  T  T  X  X  T  T T  T  T  T T  T T  T T
|-------------------------------------------------------------------------------------|
|-17--17-15-13-13-13-------------13-13-------------13p11-10-10-8h10h11p10-8h10p8------|
|--------------------15-15-14h15-------15p14p13p12-------------------------------10p9-|
|-------------------------------------------------------------------------------------|
|-------------------------------------------------------------------------------------|
|-------------------------------------------------------------------------------------|


  Dm                                      C
 5/8
   E.                   E            S     E        E
|----------------------------------------------------------|
|--3--------------------3------------------1--------1------|
|--2--------------------2------------------0--------0------|
|--3--------------------3------------------2--------2------|
|--5--------------------5------------0-----3--------3------|
|----------------------------------------------------------|
|----------------------------------------------------------|
|
|  |---------------10:6-----------------|  |------6------|
|  S   S  X  X T  S  S  T T  S  S  S    S  S  S  S  S  S S
|----------------------------------------------------------|
|----------------------------------------------------------|
|-12--12-12p10p9----10-10p9----10-10-----------------------|
|----------------12---------12-----------------------------|
|--------------------------------------12h15-13h15-11h13---|
|--------------------------------------------------------8-|


  Bb                              Am
   E.             E          S     E          E
|-------------------------------------------------------|
|-------------------------------------------------------|
|--3--------------3----------------2----------2---------|
|--3--------------3----------------2----------2---------|
|--5--------------5----------------3----------3---------|
|--6--------------6----------1-----5----------5---------|
|-------------------------------------------------------|
|
|  |-----------10:6-------------|  |-------6--------|
|  S  S  S  S  S  S  S  S  S    S  S  +S   S  S  S  S
|-------------------------------------------------------|
|-------------------------------------------------------|
|-------------------------------------------------------|
|--------------------------------------------12h14h15---|
|----------10h12h13-12-12h13h==15-12-(12)s15------------|
|-10h12h13----------------------------------------------|


  Gm                              F
 6/8
   E.             E          S     E                 E            E
|----------------------------------------------------------------------------|
|----------------------------------------------------------------------------|
|--0--------------0----------------------------------------------------------|
|--0--------------0----------------3-----------------3------------3----------|
|--1--------------1----------------3-----------------3------------3----------|
|--3--------------3----------------5-----------------5------------5----------|
|----------------------------5-----8-----------------8------------8----------|
|
|  |-----------10:6-------------|                                 |---3----|
|  S  S  S  S  S  S  S  S  S    S  T  X  X  T  X  X  T  T   T  T  S  S  T  T
|----------------------------------------------------------------------------|
|---------------------------------13----------13s18p15-13-----18-17h18h20p18-|
|----------12----------12h14h==15----15p14h15-------------/17----------------|
|-12h14h15----15p12h15-------------------------------------------------------|
|----------------------------------------------------------------------------|
|----------------------------------------------------------------------------|


  E                                           A7sus4 A7
   E.                     E                 S   E  E   E
|--0----------------------0--------------------------------|
|--0----------------------0---------------------3--2---2---|
|--1----------------------1---------------------0--0---0---|
|--2----------------------2---------------------2--2---2---|
|--2----------------------2---------------------0--0---0---|
|--0----------------------0-----------------0--------------|
|----------------------------------------------------------|
|
|  |--------------10:6----------------|
|  S   T  T  T  T  S  S   S  T  T  S  E        +Q     +E
|--------------------17-/18-18h20h22-22b24====(22)---(22)r=|
|-18--17h18-18h20-20---------------------------------------|
|----------------------------------------------------------|
|----------------------------------------------------------|
|----------------------------------------------------------|
|----------------------------------------------------------|


  Dm                                   C
 5/8
   E.                    E        S     E             E
|-------------------------------------------------------------------|
|--3---------------------3--------------1-------------1-------------|
|--2---------------------2--------------0-------------0-------------|
|--3---------------------3--------------2-------------2-------------|
|--5---------------------5--------0-----3-------------3-------------|
|-------------------------------------------------------------------|
|-------------------------------------------------------------------|
|
|                                       |------------7------------|
|  S      +S   +S       +S   +S   T  T  S  S  T  T  S    S  S  T  T
|-22b24==(22)r(22)b24==(22)r(22)-------20h22-20p18p17---18h20-20p18-|
|--------------------------------20h23------------------------------|
|-------------------------------------------------------------------|
|-------------------------------------------------------------------|
|-------------------------------------------------------------------|
|-------------------------------------------------------------------|


  Bb                                     Am
   E.              E             S        E       E
|---------------------------------------------------------|
|---------------------------------------------------------|
|--3---------------3----------------------2-------2-------|
|--3---------------3----------------------2-------2-------|
|--5---------------5----------------------3-------3-------|
|--6---------------6-------------1--------5-------5-------|
|---------------------------------------------------------|
|
|  |----------------9:6----------------|  |------6------|
|  S   S  S  S  T  T  T  T  S  S    T  T  S S  S  S  S  S
|-18-----18-18-20p18------------------------0-------------|
|-----18-------------22p21S22h24---22p20-20---20-22h23p20-|
|---------------------------------------------------------|
|---------------------------------------------------------|
|---------------------------------------------------------|
|---------------------------------------------------------|


  Gm                               F
 6/8
   E.             E        S        E           E        E
|-------------------------------------------------------------------|
|-------------------------------------------------------------------|
|--0--------------0-------------------------------------------------|
|--0--------------0-----------------3-----------3--------3----------|
|--1--------------1-----------------3-----------3--------3----------|
|--3--------------3-----------------5-----------5--------5----------|
|--------------------------5--------8-----------8--------8----------|
|
|  T  T  T  T  S  S  T  T  T  X  X  T  T  T  T  S  T  T  T  X  X  S
|-------------------------------------------------------------------|
|-18h20h22p20p18----18h20h22p20p18-17h18h20p18p17----17h18h20p18p17-|
|----------------19-------------------------------17----------------|
|-------------------------------------------------------------------|
|-------------------------------------------------------------------|
|-------------------------------------------------------------------|


  E                                 A7sus4     A7
   E.              E              S E          E          E
|--0---------------0------------------------------------------------------|
|--0---------------0----------------3----------2----------2---------------|
|--1---------------1----------------0----------0----------0---------------|
|--2---------------2----------------2----------2----------2---------------|
|--2---------------2----------------0----------0----------0---------------|
|--0---------------0--------------0---------------------------------------|
|-------------------------------------------------------------------------|
|
|  |------------9:6------------|    |---------------7:6---------------|
|  S   S  S  S  T  T  T  T  S  E    S  T  T  T    T  S  S    T  T  T  T
|-16--------------------------16\-------------------17-21-----------------|
|-----17----------------14h17--------------------17---------17------------|
|--------13-------13h16---------------------18-----------------18---------|
|-----------14-14------------------------19-----------------------19------|
|-------------------------------------19-----------------------------19---|
|-------------------------------------------------------------------------|


  Dm                            C
 5/8
   E.         E          S        E                  E
|------------------------------------------------------------|
|--3----------3-------------------1------------------1-------|
|--2----------2-------------------0------------------0-------|
|--3----------3-------------------2------------------2-------|
|--5----------5----------0--------3------------------3-------|
|------------------------------------------------------------|
|------------------------------------------------------------|
|
|                                 |-----------6------------|
|  E      +E     S      +S       +S   +S        +S   S  S  S
|------------------------------------------------------------|
|-20b22==(20)r==20pb22r(20)b22==(20)r(20)b20.5-(20)-22p20s23-|
|------------------------------------------------------------|
|------------------------------------------------------------|
|------------------------------------------------------------|
|------------------------------------------------------------|


  Bb                              Am
   E.            E           S     E     E
|-----------------------------------------------------|
|-----------------------------------------------------|
|--3-------------3-----------------2-----2------------|
|--3-------------3-----------------2-----2------------|
|--5-------------5-----------------3-----3------------|
|--6-------------6-----------1-----5-----5------------|
|-----------------------------------------------------|
|
|  |------------8:6-------------|
|  S   S  S  S  +S   a  S  S    S  S  S  T     +T   S
|-----20-22-20-(20)s22-22s20--------------------------|
|-22---------------------------22p20h22-20b22-(20)-20-|
|-----------------------------------------------------|
|-----------------------------------------------------|
|-----------------------------------------------------|
|-----------------------------------------------------|


  Gm                        F
 6/8
   E.            E        S  E       E       E
|-------------------------------------------------|
|-------------------------------------------------|
|--0-------------0--------------------------------|
|--0-------------0-----------3-------3-------3----|
|--1-------------1-----------3-------3-------3----|
|--3-------------3-----------5-------5-------5----|
|-------------------------5--8-------8-------8----|
|
|                            |---4:3----|
|  S  S  S      +S   +S   S  S  S  S    S  E    S
|----------------------------------------------20p|
|-18h20-18b20==(18)r(18)----18s15s18s==15\--------|
|------------------------19-----------------------|
|-------------------------------------------------|
|-------------------------------------------------|
|-------------------------------------------------|


  E
   E.          E       S     E          E          E
|--0-----------0-------------0----------0----------0-------------|
|--0-----------0-------------0----------0----------0-------------|
|--1-----------1-------------1----------1----------1-------------|
|--2-----------2-------------2----------2----------2-------------|
|--2-----------2-------------2----------2----------2-------------|
|--0-----------0-------0-----0----------0----------0-------------|
|----------------------------------------------------------------|
|
|  |---------8:6----------|  |--------------10:6---------------|
|  S  S  S  S  S  S  S    S  S  S  S  S    S  S  S    S  T  T  S
|-19p17-17h19-17s16----------------------------------------------|
|-------------------18------17h18p17------17---------17-------22-|
|------------------------19----------19------17h19------19p17----|
|----------------------------------------------------------------|
|----------------------------------------------------------------|
|----------------------------------------------------------------|


  E
   E.                    E                    S           E                 E                  E
|--0---------------------0--------------------------------0-----------------0------------------0----------||
|--0---------------------0--------------------------------0-----------------0------------------0----------||
|--1---------------------1--------------------------------1-----------------1------------------1----------||
|--2---------------------2--------------------------------2-----------------2------------------2----------||
|--2---------------------2--------------------------------2-----------------2------------------2----------||
|--0---------------------0--------------------0-----------0-----------------0------------------0----------||
|---------------------------------------------------------------------------------------------------------||
|
|  |-------7:6--------|  |-------------9:6-------------|  |---------------------9:6---------------------|
|  T   T  T  T  T  T  T  T  T  X  X  T  T  T  T  X  X  T  S  +S       +S   +S   +S       +S   +S   +S   S
|---------------------------------------------------------------------------------------------------------||
|-22--18h21h22p21p18-21-17h18-18h21p18-17p16p13-16-16-13--------------------------------------------------||
|--------------------------------------------------------16-(16)b17==(16)r(16)-(16)b17==(16)r(16)-(16)s14-||
|---------------------------------------------------------------------------------------------------------||
|---------------------------------------------------------------------------------------------------------||
|---------------------------------------------------------------------------------------------------------||


  N.C.
 4/4
  Gtrs II, III
                                         ~~~~~~~~~~~~~~~
   E.            S       +E              E          +E           E           E        S        S
|------------------------------------------------------------------------------------------------------|
|------------------------------------------------------------------------------------------------------|
|------------------------------------------------------------------------------------------------------|
|------------------------------------------------------------------------------------------------------|
|---------------------------------------/5----------(5)----------4--------------------4--------5-------|
|--5-------------6-------(6)---------------------------------------------------------------------------|
|
| Gtr VI
|  E.            S       +E              E          +E           E           E        S        S
|------------------------------------------------------------------------------------------------------|
|------------------------------------------------------------------------------------------------------|
|------------------------------------------------------------------------------------------------------|
|------------------------------------------------------------------------------------------------------|
|------------------------------------------------------------------------------------------------------|
|------------------------------------------------------------------------------------------------------|
|--0-------------1-------(1)-------------5----------(5)----------4--------------------4--------5-------|
|
| Gtr V
|  |---------6---------|                 |---3----|                                   |------6-------|
|  S  S  S  S  S    T  T  X  X  T  T  T  T  T  S  S  T  T  T  T  T  T  T  T  T  S  T  T  T  T  T  T  T
|---------------------------------17-17h18h20-20h22-22s20p18-17h18h20-22-22-20-------------------------|
|-17h18h20h22p20---18p17-18h20-20----------------------------------------------22-20-20s18-18p17-17h18-|
|------------------------------------------------------------------------------------------------------|
|------------------------------------------------------------------------------------------------------|
|------------------------------------------------------------------------------------------------------|
|------------------------------------------------------------------------------------------------------|


  N.C.
   E          S          S           S       S       E             +S    e                S        S        S        S       S
|-----------------------------------------------------------------------------------------------------------------------------------|
|-----------------------------------------------------------------------------------------------------------------------------------|
|-----------------------------------------------------------------------------------------------------------------------------------|
|------------------------5-------------------8-------7-------------(7)---5----------------------------------------------------------|
|--7----------8---------------------------------------------------------------------------8--------7--------5--------4--------------|
|----------------------------------------------------------------------------------------------------------------------------6------|
|
|  E          S          S           S       S       E             +S    e                S        S        S        S       S
|-----------------------------------------------------------------------------------------------------------------------------------|
|-----------------------------------------------------------------------------------------------------------------------------------|
|-----------------------------------------------------------------------------------------------------------------------------------|
|-----------------------------------------------------------------------------------------------------------------------------------|
|-----------------------------------------------------------------------------------------------------------------------------------|
|------------------------3-------------------6-------5-------------(5)---3----------------------------------------------------------|
|--7----------8---------------------------------------------------------------------------8--------7--------5--------4-------1------|
|
|  |--------------7---------------|  |-------------5-------------|  |-------------7-------------|
|  S  S  S  S    T  T  T    T  T  T  T  T  T    T  S    T  T  T  T  S  S    S  T  T  T  S    T  S  X  T  X  X  T  X  X  T  T    X  T
|-----------------------------------18h20-20s==22-22---20s18p17-17s18h20---22-22p20-20p17---15h17-17p15-15p13p12-13h15h16p15---13p11|
|-20h22p20p18---17h18-20---20-22-22-------------------------------------------------------------------------------------------------|
|-----------------------------------------------------------------------------------------------------------------------------------|
|-----------------------------------------------------------------------------------------------------------------------------------|
|-----------------------------------------------------------------------------------------------------------------------------------|
|-----------------------------------------------------------------------------------------------------------------------------------|


  N.C.
                                                 ~~~~~~~~~~~~
   E.                         S       +E         E       +E              E           E          S       S
|----------------------------------------------------------------------------------------------------------------|
|----------------------------------------------------------------------------------------------------------------|
|----------------------------------------------------------------------------------------------------------------|
|----------------------------------------------------------------------------------------------------------------|
|-----------------------------------------------/5-------(5)-------------4----------------------4-------5--------|
|--5--------------------------6-------(6)------------------------------------------------------------------------|
|
|  E.                         S       +E         E       +E              E           E          S       S
|----------------------------------------------------------------------------------------------------------------|
|----------------------------------------------------------------------------------------------------------------|
|----------------------------------------------------------------------------------------------------------------|
|----------------------------------------------------------------------------------------------------------------|
|----------------------------------------------------------------------------------------------------------------|
|----------------------------------------------------------------------------------------------------------------|
|--0--------------------------1-------(1)--------5-------(5)-------------4----------------------4-------5--------|
|
|                                      |-------6-------|                             |-----------5-----------|
|  X  X  X  T  T  T  X  X  X  T  X  X  S   S  S  S  S  S  X  T  X  T  T  T  T  T  T  S  T  T  S    T  T   T  T
|-------------------17s18-18h20-18s17----------------------------------------------------------------------------|
|-15h16h17h18-19h20-------------------20--20-18S15-17s20-20p18-17p15-15------------------------------------------|
|-----------------------------------------------------------------------17S14-14S17-19p17s15-14---11s10s==9s10---|
|----------------------------------------------------------------------------------------------------------------|
|----------------------------------------------------------------------------------------------------------------|
|----------------------------------------------------------------------------------------------------------------|


  N.C.
                                                                                         ~~~~~~~~~~~~~~~~~~~~~~~~~~~~~~
   E                         S                    S        +S     S     E          S     E.                        +Q
|-------------------------------------------------------------------------------------------------------------------------------|
|-------------------------------------------------------------------------------------------------------------------------------|
|-------------------------------------------------------------------------------------------------------------------------------|
|-/8-------------------------8--------------------5--------(5)----5-----7----------7--------------------------------------------|
|----------------------------------------------------------------------------------------8-------------------------(8)----------|
|-------------------------------------------------------------------------------------------------------------------------------|
|
|  E                         S                    S        +S     S     E          S     E.                        +Q
|-------------------------------------------------------------------------------------------------------------------------------|
|-------------------------------------------------------------------------------------------------------------------------------|
|-------------------------------------------------------------------------------------------------------------------------------|
|-------------------------------------------------------------------------------------------------------------------------------|
|-------------------------------------------------------------------------------------------------------------------------------|
|--6-------------------------6--------------------3--------(3)----3-----5----------5--------------------------------------------|
|----------------------------------------------------------------------------------------8-------------------------(8)----------|
|
|  |--------------------------6--------------------------|  |---------6---------|
|  T      +T       +T   T S  T      +T   +T      +T   T  T  S  T  T  S  T  T  S S  T  T  T   T  T      +T   +T   T  S   T S  S.
|-------------------------------------------------------------------------------------------------------------------------------|
|----------------------------------------------------10s11h13p11p10-10----------------------------------------------------------|
|-10pb12r(10)b12==(10)r10s7s10b12==(10)r(10)b12-(10)-------------------12s10----9h10S12-----------------------------------------|
|----------------------------------------------------------------------------12---------12-----11b12==(11)r(11)-----------------|
|-------------------------------------------------------------------------------------------12------------------11h12--11p9-----|
|---------------------------------------------------------------------------------------------------------------------------10--|


  N.C.
                                     ~~~~~~~~~~~~~~~~~~~~~~
  E.     S       +E                  E                 +E  E  E     S  S    E      S  S  S  S  E    +S   e     S  S  S  S  S
|------------------------------------------------------------------------|---------------------------------------------------|
|------------------------------------------------------------------------|---------------------------------------------------|
|------------------------------------------------------------------------|---------------------------------------------------|
|------------------------------------------------------------------------|------------5-----8--7----(7)--5-------------------|
|-----------------------------------/5-----------------(5)-4--------4--5-|--7------8---------------------------8--7--5--4----|
|-5------6-------(6)-----------------------------------------------------|-------------------------------------------------6-|
|
| E.     S       +E                  E                 +E  E  E     S  S    E      S  S  S  S  E    +S   e     S  S  S  S  S
|------------------------------------------------------------------------|---------------------------------------------------|
|------------------------------------------------------------------------|---------------------------------------------------|
|------------------------------------------------------------------------|---------------------------------------------------|
|------------------------------------------------------------------------|---------------------------------------------------|
|------------------------------------------------------------------------|---------------------------------------------------|
|------------------------------------------------------------------------|------------3-----6--5----(5)--3-------------------|
|-0------1-------(1)-----------------5-----------------(5)-4--------4--5-|--7------8---------------------------8--7--5--4--1-|
|
|                 |---------------6----------------|
| S  E  +S       +S   +S   +S       +S   +S       +S   +E  E  S  S  S  S    S.  T  S  S  S  S  S  S  S   S  S  S  S  S  S  S
|------------------------------------------------------------------------|---------------------------------------12-13-15-16-|
|------------------------------------------------------------------------|-----------------13-14-15p14--13-14-15-------------|
|-7s12-(12)b14==(12)r(12)-(12)b14==(12)r(12)b14==(12)r(12)------------14-|-15--14p12-14-15-----------------------------------|
|----------------------------------------------------------2S14-15-17----|---------------------------------------------------|
|------------------------------------------------------------------------|---------------------------------------------------|
|------------------------------------------------------------------------|---------------------------------------------------|


                                          ~~~~~~~~~~~~~~~~~~
   E.                   S  +E             E            +E   E  E        S    S
|---------------------------------------------------------------------------------|
|---------------------------------------------------------------------------------|
|---------------------------------------------------------------------------------|
|---------------------------------------------------------------------------------|
|----------------------------------------/5------------(5)--4-----------4----5----|
|--5--------------------6--(6)----------------------------------------------------|
|
|  E.                   S  +E             E            +E   E  E        S    S
|---------------------------------------------------------------------------------|
|---------------------------------------------------------------------------------|
|---------------------------------------------------------------------------------|
|---------------------------------------------------------------------------------|
|---------------------------------------------------------------------------------|
|---------------------------------------------------------------------------------|
|--0--------------------1--(1)------------5------------(5)--4-----------4----5----|
|
|                                                              |-------6--------|
|  S      +S   +S       S  +S       +S   +S       +S   +Q      S  S  S  S  S    S
|-17b18==(17)r(17)b18==17r(17)b18==(17)r(17)b18==(17)r(17)\-----------------------|
|-------------------------------------------------------------------14s17---------|
|-------------------------------------------------------------14h17-------14h==17-|
|---------------------------------------------------------------------------------|
|---------------------------------------------------------------------------------|
|---------------------------------------------------------------------------------|


  N.C.
                                                     ~~~
   E.                   S    +E          E           Q                            +Q
|---------------------------------------------------------------------------------------------------------||
|---------------------------------------------------------------------------------------------------------||
|---------------------------------------------------------------------------------------------------------||
|---------------------------------------------------------------------------------------------------------||
|-/7--------------------8----(8)---------7-----------5----------------------------(5)\--------------------||
|---------------------------------------------------------------------------------------------------------||
|
|  E.                   S    +E          E           H
|---------------------------------------------------------------------------------------------------------||
|---------------------------------------------------------------------------------------------------------||
|---------------------------------------------------------------------------------------------------------||
|---------------------------------------------------------------------------------------------------------||
|---------------------------------------------------------------------------------------------------------||
|---------------------------------------------------------------------------------------------------------||
|--7--------------------8----(8)---------7-----------5----------------------------------------------------||
|
|                             |---------7---------|                                |---------7---------|
|  T  T  T  T  T  X  X  T  T  S  S  S  S    S  S  S  X  X  T  T  T  T  T  T  X  X  S    S  S  S  S  S  S
|----------------15h17------------------------------------------------------------------------------------||
|-14s17p14-17S18-------14h17-18s22h24------18h20s23-21p18s21-------20s23---------------18h20s22-18h20s22--||
|-------------------------------------19---------------------19h22-------21-18s19s21----------------------||
|---------------------------------------------------------------------------------------------------------||
|---------------------------------------------------------------------------------------------------------||
|---------------------------------------------------------------------------------------------------------||


 Piano Solo
  D5                                                     C5
 5/8
  Gtrs II, III
   E.                E                           S         E    E
   |                 |                           |         |    |
   /                 /                           x         /    /

  Gtr VI
   S     E           E                           S         E    E
|-22----------------22------------------------------------20------|
|-------22--------------------------------------22-------------20-|
|-19----------------19------------------------------------17------|
|-------19--------------------------------------19-------------17-|
|-----------------------------------------------------------------|
|-----------------------------------------------------------------|
|-----------------------------------------------------------------|
|
| Gtr V
|  T  T  S.  T      +T   +T       +T   +T       +T   +T   +E    E
|-18s20s22--22b23==(22)r(22)b23==(22)r(22)b23==(22)r(22)-(22)\----|
|-----------------------------------------------------------------|
|-----------------------------------------------------------------|
|-----------------------------------------------------------------|
|-----------------------------------------------------------------|
|-----------------------------------------------------------------|


  Bb5          A5      G5           F5
                      6/8
   E.     E  S  E  E    E.     E  S  E  E    E
   |      |  |  |  |    |      |  |  |  |    |
   /      /  x  /  /    /      /  x  /  /    /

   S   E  E  S  E  E    S   E  E  S  E.    E    S
|-18-----18----17----|--------18----------22------|
|-----18----18----17-|-20--------20-22---------22-|
|-15-----15----14----|-----19-15----------19------|
|-----15----15----14-|-17--------17-19------------|
|--------------------|-----17---------------------|
|--------------------|----------------------------|
|--------------------|----------------------------|
|
|  W                    W
|--------------------|----------------------------|
|--------------------|----------------------------|
|--------------------|----------------------------|
|--------------------|----------------------------|
|--------------------|----------------------------|
|--------------------|----------------------------|


  E5                              A5
   E.             E          S     E     E     E
   |              |          |     |     |     |
   /              /          x     /     /     /

   |------------9:6-------------|
   S   S  S  S  S    S  S  S    S  S  S  S  S  S  S
|-------------------15-18-15------17-15-13----------|
|--------------15--------------15----------17-15-14-|
|-----------15--------------------14----------------|
|-17-----17-----------------------------------------|
|-----17--------------------------------------------|
|---------------------------------------------------|
|---------------------------------------------------|


  D5          C5         Bb5          A5
 5/8
  E.     E  S  E     E    E.     E  S  E     E
  |      |  |  |     |    |      |  |  |     |
  /      /  x  /     /    /      /  x  /     /

  S   E  E  S  S  S  E    E   S  E  S  S  S  E
|-------------------15-|-----15-17-18-17-18-17--|
|----15-17-18-17-18----|-18---------------------|
|----------------------|------------------------|
|----------------------|------------------------|
|----------------------|------------------------|
|----------------------|------------------------|
|----------------------|------------------------|


  G5              F5
 6/8
   E.        E  S  E        E        E
   |         |  |  |        |        |
   /         /  x  /        /        /

                   |----------9:6----------|
   S   S  S  E  S  S  S  S  S  S  S  S  S  S
|-15--------18-17----------------------------|
|-----15----------18-15----17-15----15-------|
|--------15-------------14-------14----14----|
|-----------------------------------------15-|
|--------------------------------------------|
|--------------------------------------------|
|--------------------------------------------|


  E5                              A5
   E.             E          S     E  E E
   |              |          |     |  | |
   /              /          x     /  / /

   |------------9:6-------------|
   S   S  S  S  S    S  S  S    S  E  Q
|-18--17-15--------------------------17---||
|-----------18-17---14--------------------||
|----------------------15-12---------14---||
|------------------------------14-12------||
|-----------------------------------------||
|-----------------------------------------||
|-----------------------------------------||


 Synth Solo
  D5            C5              Bb5                     A5
 5/8
  E.        E S E      E         E.         E         S  E      E
  |         | | |      |         |          |         |  |      |
  /         / x /      /         /          /         x  /      /

  Gtr IV
                                      \0.5/     \0.5/
         ~~~~
  S  S  +Q      S +S   S  +S     E   +E        +E        E     +E
|-----------------------------|-------------------------12b13-(12)-|
|-----------------------------|------------------------------------|
|---------------9-(9)s12-(12)s|=10--(10)------(10)-----------------|
|-7s12-(12)-------------------|------------------------------------|
|-----------------------------|------------------------------------|
|-----------------------------|------------------------------------|


  G5             F5
 6/8
   E.      E   S   E   E    E
   |       |   |   |   |    |
   /       /   x   /   /    /

   \2.5/   \1______|   \1/  \1/
   E.     +E.     +E   E    E
|-10-----(10)----(10)-----------|
|---------------------10---10---|
|-------------------------------|
|-------------------------------|
|-------------------------------|
|-------------------------------|


  E5                        A5
   E.          E          S E          E       E
   |           |          | |          |       |
   /           /          x /          /       /

                  |-3--|    |----4:3-----| |--4:3--|
   T  T  S  S  S  T  T T  S T  S X X S   S S S   S S
|------------------------------------------------------|
|----------10----11p10p8-------------------------------|
|-12p10h12---------------10-7h10-9p7p6-----6-----------|
|-------------12-------------------------8---8---7-7b8r|
|------------------------------------------------------|
|------------------------------------------------------|


  D5             C5
 5/8
   E.        E S E   E
   |         | | |   |
   /         / x /   /

  +S  S +Q       S S S S
|-------------------------|
|-------------------------|
|-------------------------|
|-(7)---------------------|
|-----5-(5)\-----------3--|
|----------------0-1-3----|


  Bb5                    A5
  E.       E       S     E          E
  |        |       |     |          |
  /        /       x     /          /

             |----5----| |---------6---------|
  S  T T S S T T T   T T S. T  T  T T  T  S  S
|----------------------------------------------|
|----------------------------------------------|
|-------------------------------------------10-|
|--------------------5h7-7--8h10h11-8h10h12----|
|-5------3-5-5h7h8-----------------------------|
|----3s5---------------------------------------|


  G5                           F5
 6/8
   E.                  E    S   E          E        E
   |                   |    |   |          |        |
   /                   /    x   /          /        /

   |--3---|
   S   S  S   S       +E   +S   S   S      T  T  E      T  T
|-----------[15]b17==(15)-(15)r15-[15]b17-15p13h15\-------12pb13r=|
|-----10----------------------------------------------------------|
|-12-----10-------------------------------------------------------|
|-----------------------------------------------------\12---------|
|-----------------------------------------------------------------|
|-----------------------------------------------------------------|


  E5
    E.                E               S     E            E          E
    |                 |               |     |            |          |
    /                 /               x     /            /          /

    |---------------10:6-----------------|  |------------10:6-------------|
   +S   S  S  T  T S.    T  T  T  S S    S  S T T  T T S   S  T T S   S S S
|-(12)-10-13p12p10p9--------------------------------------------------------|
|-----------------------11h14p11p10-8---11-10p8p6-10p8p6--------------------|
|----------------------------------------------------------9h10p9p7---6-9p7p|
|---------------------------------------------------------------------------|
|---------------------------------------------------------------------------|
|---------------------------------------------------------------------------|


  E.          E       S     E       E     E
  |           |       |     |       |     |
  /           /       x     /       /     /

  |---------10:6----------| |------9:6------|
  S. T  S S S S S S T   T S S S T T S S S S E
|------------------------------------------------||
|------------------------------------------------||
|-6----------------------------------------------||
|----8h11-8-5-8-5---7p==5p3----------------------||
|-----------------8---------7-8-7p5p4-1-4-1-0----||
|------------------------------------------------||


  N.C.
 4/4
  Gtrs II, III
                             ~~~~~~~~~~~~~~~~~
   E.             S     +E   E           +E                E             E    S             S
|----------------------------------------------------------------------------------------------|
|----------------------------------------------------------------------------------------------|
|----------------------------------------------------------------------------------------------|
|----------------------------------------------------------------------------------------------|
|---------------------------/5-----------(5)---------------4------------------4-------------5--|
|--5--------------6-----(6)--------------------------------------------------------------------|
|
| Gtr IV
|                                                          |--3--|
| +T   T     +E   S     +E   S  +S       +T   +T      +S   S  S  S      +E   +T   +T       +S
|-----15b17-(15)-15b17-(15)-15-(15)b17==(15)r(15)b17-(15)----17--------------------------------|
|---------------------------------------------------------------15b17==(15)-(15)r(15)b17==(15)-|
|---------------------------------------------------------14-----------------------------------|
|----------------------------------------------------------------------------------------------|
|-(0)------------------------------------------------------------------------------------------|
|----------------------------------------------------------------------------------------------|


    E  S S   S  S  E        +S      e        S  S        S     S     S
|------------------------------------------------------------------------------|
|------------------------------------------------------------------------------|
|------------------------------------------------------------------------------|
|--------5------8--7--------(7)-----5------------------------------------------|
|---7--8-------------------------------------8--7--------5-----4---------------|
|--------------------------------------------------------------------6---------|
|
|                                   |--3--|
|  +Q       +E     T  S  T  +T   T  S  S  S  S  X  X  T  T  T  T  T  T  T
|------------------------------------------------------------------------------|
|-(15)-----(15)r==14h15h17-(17)-15s14----15------------------------------------|
|-------------------------------------15----15-14h15p14-12p10h12-14h15-12b14===|
|------------------------------------------------------------------------------|
|------------------------------------------------------------------------------|
|------------------------------------------------------------------------------|


  N.C.
                         ~~~~~~~~~~~~~~~~~
    E.           S  +E   E           +E       E      E   S  S
|-------------------------------------------------------------|
|-------------------------------------------------------------|
|-------------------------------------------------------------|
|-------------------------------------------------------------|
|-----------------------/5-----------(5)------4----------4--5-|
|---5------------6--(6)---------------------------------------|
|
|  +E   +S       S  +E   S      +S   +S    s  S  S  +E   S  S
|-------------------------------------------------------------|
|-------------------------------------------------------------|
|-(12)r(12)b14==12-(12)r12b14==(12)-(12)r/14------------------|
|--------------------------------------------12h14-(14)-12s11-|
|-------------------------------------------------------------|
|-------------------------------------------------------------|


                                                    ~~~
   E        S     S  +S  S  E           S     S    +Q                    +E
|--------------------------------------------------------------------------------------------------|
|--------------------------------------------------------------------------------------------------|
|--------------------------------------------------------------------------------------------------|
|-/8--------8-----5--(5)-5--7-----------7----------------------------------------------------------|
|---------------------------------------------8----(8)-------------------(8)\----------------------|
|--------------------------------------------------------------------------------------------------|
|
|                              |--3--|              |----5----|  |--5--|  |---------6---------|
|  T  T  S  T  T  S   S  S  S  T  T  T  T  T  T  T  T   T  S  T  S  T  S  T    T  T     +T    S
|--------------------------------------------------15---------------------------------------[17]---|
|--------------------------------------------14h17-------------------------------15b16-(15)--------|
|--------------------------------------12h15-----------18p15-------------13h==17-------------------|
|-14p12p11-----------------------11h14-----------------------17p14---------------------------------|
|----------16p13-12-/13s12-10h12-----------------------------------15h17---------------------------|
|--------------------------------------------------------------------------------------------------|


  N.C.
                      ~~~~~~~~~~~~~~~~~~~~~
   E.         S  +E   E                +E  E   E        S  S
|------------------------------------------------------------|
|------------------------------------------------------------|
|------------------------------------------------------------|
|------------------------------------------------------------|
|--------------------/5----------------(5)-4------------4--5-|
|--5----------6--(6)-----------------------------------------|
|
|  S      +E.    +E.     +T   +T       +Q     +S   +S   S  S
|-22b24==(22)---(22)----(22)r(22)b24==(22)---(22)r(22)\-9----|
|---------------------------------------------------------11-|
|------------------------------------------------------------|
|------------------------------------------------------------|
|------------------------------------------------------------|
|------------------------------------------------------------|


   E                S    S      S     S     E          +S     e           S  S     S   S                      S
|-------------------------------------------------------------------------------------------------------------------------------|
|-------------------------------------------------------------------------------------------------------------------------------|
|-------------------------------------------------------------------------------------------------------------------------------|
|------------------------5------------8-----7----------(7)----5-----------------------------------------------------------------|
|--7----------------8-----------------------------------------------------8--7-----5---4----------------------------------------|
|-------------------------------------------------------------------------------------------------------------6-----------------|
|
|                               |---------6----------|        |---3----|               |-----------------6------------------|
|  S      +S       +S   +S      T  S  T  S  s  T  T  S  T  T  S     S  S  S  T  T  S  +T       +T   +T       +T   +T       +T
|-22b24==(22)b25==(22)r(22)b27-21p18-------18----------------------17----17-----------------------------------------------------|
|------------------------------------22p20----22s20s18-20s22-20b22----20----20p18p17-(17)b18==(17)r(17)b18==(17)r(17)b18==(17)r=|
|-------------------------------------------------------------------------------------------------------------------------------|
|-------------------------------------------------------------------------------------------------------------------------------|
|-------------------------------------------------------------------------------------------------------------------------------|
|-------------------------------------------------------------------------------------------------------------------------------|


  N.C.
                                           ~~~~~~~~~~~~~~~~~~~~~~~~~~
    E.              S     +E               E                     +E     E           E             S    S
|-----------------------------------------------------------------------------------------------------------|
|-----------------------------------------------------------------------------------------------------------|
|-----------------------------------------------------------------------------------------------------------|
|-----------------------------------------------------------------------------------------------------------|
|-----------------------------------------/5---------------------(5)----4-------------------------4----5----|
|---5---------------6-----(6)-------------------------------------------------------------------------------|
|
|  +S.   T     +S   T  T  +T   T  X  T  X  T  X  X  X     +T   X  S  S  T  T  T  T  T     +S   T  T  S    T
|-----------------------------------------------------------------------------------------------------------|
|-(17)\-16b18-(16)-17---------18p17-------------18p17b18-(17)-17--6--6S18p17-------15b17r(15)----18-17------|
|-----------------------------------19p18p17p16---------------------------------14--------------------------|
|---------------------17-(17)------------------------------------------------15---------------17---------15-|
|-----------------------------------------------------------------------------------------------------------|
|-----------------------------------------------------------------------------------------------------------|

[ Tab from: http://www.guitartabs.cc/tabs/d/dream_theater/stream_of_consciousness_tab.html ]
  N.C.
   E.                      S       +S               S     E        E.                      S    +E                 E
|-------------------------------------------------------------------------------------------------------------------------------------||
|-------------------------------------------------------------------------------------------------------------------------------------||
|-------------------------------------------------------------------------------------------------------------------------------------||
|-------------------------------------------------------------------------------------------------------------------------------------||
|-/8-----------------------7-------(7)--------------7-----8--------7-----------------------5----(5)-----------------------------------||
|------------------------------------------------------------------------------------------------------------------6------------------||
|
|           |-----5-----|  |----4:3-----|  |--3--|        |--3--|  |--3--|                                                     |--3--|
|  T  S  T  X  X  X  X  X  T  T  T      T  X  X  X  T  T  S  S  S  X  X  X  T  T  T  T  T  T  T  T  T  X  X  X  X  T  T  X  X  X  X  X
|-------------------------15-15-13h====15-17p15-------15s18----18p17p15-13h15-18s13-15-15p13h15-13h17p13-15h17h18----15h17p15---------||
|-15h17----17p15p14h15h17-------------------------------------------------------------------------------------------------------------||
|-----------------------------------------------15p12-------14----------------------------------------------------------------16p14h16||
|-------17--------------------------------------------------------------------------------------------------------17------------------||
|-------------------------------------------------------------------------------------------------------------------------------------||
|-------------------------------------------------------------------------------------------------------------------------------------||


  A5                                  F5
  Gtrs II, III
   W                                   W
   |                                   |
   /                                   /

  Gtr IV
                              ~~~~~                     ~~~~
   E.   S  +E    E      +E   +Q.       E.   S  +E   E  +H
|-----------------------------------|-------------------------|
|--------------/19b20==(19)-(19)r---|--------------16-(16)----|
|-14--/17-(17)----------------------|-10--/14-(14)------------|
|-----------------------------------|-------------------------|
|-----------------------------------|-------------------------|
|-----------------------------------|-------------------------|


  A5                                  F5
   W                                   W
   |                                   |
   /                                   /

                              ~~~~~                     ~~~~
   E.   S  +E    E      +E   +Q.       E.   S  +E   E  +H
|-----------------------------------|-------------------------|
|--------------/19b20==(19)-(19)r---|--------------16-(16)----|
|-14--/17-(17)----------------------|-10--/14-(14)------------|
|-----------------------------------|-------------------------|
|-----------------------------------|-------------------------|
|-----------------------------------|-------------------------|


  C5                             Ab5
  W                              W
  |                              |
  /                              /

                                                    ~~~
  E.  S +E   E +Q.   +S    +S    E.  S +E   E +Q   +Q
|-----------/6-(6)---(6)b8-(6)-|-----------/2-(2)--(2)--|
|------------------------------|------------------------|
|-5--/8-(8)--------------------|-1--/5-(5)--------------|
|------------------------------|------------------------|
|------------------------------|------------------------|
|------------------------------|------------------------|


                                              H.=H
  C5                             Ab5
  W                              W
  |                              |
  /                              /

                           ~~~                     ~~~
  E.  S +E  S    +S  +Q   +Q     E.  S +E   E +E  +Q.
|-----------6b8==(6)r(6)--(6)--|-----------/2-(2)-(2)----||
|------------------------------|-------------------------||
|-5--/8-(8)--------------------|-1--/5-(5)---------------||
|------------------------------|-------------------------||
|------------------------------|-------------------------||
|------------------------------|-------------------------||


  Slower Q=92
  C#5            N.C.
  H    +H        W
  |     |
  /     /

  H    +H        Wx3
|--------------|--------|
|--------------|--------|
|-6----(6)\----|--------|
|--------------|--------|
|--------------|--------|
|--------------|--------|


    C#5    E5      F5      G5     G#5 B5C5
    Gtr II
    E.     S +E    E   +S  E.     E   S S
||----------------------------------------|
||o---------------------------------------|
||--6---------------------------------4s5-|
||--6------2-(2)---3---(3)-5------6---4s5-|
||o-4------2-(2)---3---(3)-5------6---2s3-|
||---------0-(0)---1---(1)-3------4-------|
|
|   Gtr III
|   S  S S S  S  S S S  S  S  S S S S E
||----------------------------------------|
||o---------------------------------------|
||--x--x-4-x--x--4-x-x--4--x--x-4-x-x-4---|
||--x--x-3-x--x--3-x-x--3--x--x-3-x-x-3---|
||o---------------------------------------|
||----------------------------------------|


  C#5    E5      F5      G5     G#5
  E.     S +E    E   +S  E.     E   E
|----------------------------------------||
|---------------------------------------o||
|-6--------------------------------------||
|-6------2-(2)---3---(3)-5------6--------||
|-4------2-(2)---3---(3)-5------6-------o||
|--------0-(0)---1---(1)-3------4--------||
|
| S  S S S  S  S S S  S  S  S S S S S S
|----------------------------------------||
|---------------------------------------o||
|-x--x-4-x--x--4-x-x--4--x--x-4-4-x-4-4--||
|-x--x-3-x--x--3-x-x--3--x--x-3-3-x-3-3--||
|---------------------------------------o||
|----------------------------------------||


  C#5   E5      F5    G5      G#B5C5   C#5E5      F5    G5
                                      3/4
  E.    S +E    E +S   E.     E S  S   E. S +E    E +S  E.
|------------------------------------|-----------------------||
|------------------------------------|-----------------------||
|-6-----------------------------4s=5-|-6---------------------||
|-6-----2-(2)---3-(3)--5------6-4s=5-|-6--2-(2)---3-(3)-5----||
|-4-----2-(2)---3-(3)--5------6-2s=3-|-4--2-(2)---3-(3)-5----||
|-------0-(0)---1-(1)--3------4------|----0-(0)---1-(1)-3----||
|
| E  Q.            H                   W
|------------------------------------|-----------------------||
|------------------------------------|-----------------------||
|-4\---------------------------------|-----------------------||
|-3\---------------------------------|-----------------------||
|------------------------------------|-----------------------||
|------------------------------------|-----------------------||
|
| Gtr I
| E.    S +S  S E +S   S  S S E S  S   E. S +S  S E +S  E  S
|-9-----------9-7-(7)-------7--------|-----------------------||
|-------------------------9---9------|-8--------8-6-(6)----6-||
|-------9-(9)---------10--------9-10-|------------------6----||
|------------------------------------|----9-(9)--------------||
|------------------------------------|-----------------------||
|------------------------------------|-----------------------||


  E5     G5         G#5     Bb5   B5  D5Eb5
 4/4
   E.     S  +E      E  +S  E.    E   S S
|------------------------------------------|
|------------------------------------------|
|--9----------------------------------7s8--|
|--9------5--(5)-----6--(6)-8-----9---7s8--|
|--7------5--(5)-----6--(6)-8-----9---5s6--|
|---------3--(3)-----4--(4)-6-----7--------|
|
|  W
|------------------------------------------|
|------------------------------------------|
|------------------------------------------|
|------------------------------------------|
|------------------------------------------|
|------------------------------------------|
|
|  E   S  S  +S   S  E  +S  E   S S S S S
|-12-------------12-10-(10)----10-7--------|
|---------------------------9--------------|
|--------12-(12)----------------------7----|
|-----12----------------------------9---8--|
|------------------------------------------|
|------------------------------------------|


  E5     G5      G#5     Bb5     G5  Bb5     B5    Db5     D5    F5 F#5
 3/4                            4/4
  E.     S +E    E   +S  E.       E. S +E    E +S   E.      E     S  S
|-----------------------------||---------------------------------------|
|-----------------------------||---------------------------------------|
|-9---------------------------||-12------------------------------10s11-|
|-9------5-(5)---6---(6)-8----||-12--8-(8)---9-(9)-11------12----10s11-|
|-7------5-(5)---6---(6)-8----||-10--8-(8)---9-(9)-11------12-----8s=9-|
|--------3-(3)---4---(4)-6----||-----6-(6)---7-(7)--9------10----------|
|
| Gtr I
| S  S S S +S  S S S +S  E  S     E. S +S  S E +S   S  S S  S  S  S  S
|-6------------6-4------------||---------------------------10----------|
|--------3-(3)-----------5----||--8--------8-9-(9)---------------------|
|------4----------------------||-----6-(6)----------9----9-------10-12-|
|----5-------------6-(6)----6-||-----------------------9------12-------|
|-----------------------------||---------------------------------------|
|-----------------------------||---------------------------------------|


  G5        Bb5     B5       Db5 D5   E5
   E.        S  +E   E   +S   E.  E   E
|-----------------------------------------|
|-----------------------------------------|
|-12----------------------------------9---|
|-12---------8--(8)--9---(9)-11--12---9---|
|-10---------8--(8)--9---(9)-11--12---7---|
|------------6--(6)--7---(7)--9--10-------|
|
|  S   S  S  S  +E   S S  S   E.  S S S S
|----------------------9------------------|
|--------12-------------------------------|
|-----13----12-(12)-10---10---9-------7---|
|-11------------------------------6-5---6-|
|-----------------------------------------|
|-----------------------------------------|


  F5VIII          E5VII            D5         C5               B5  Ab5
 2/4                              3/8        2/4              3/8
  Gtrs II, III
  H                H                Q.         H                E.  E.
  |                |                |          |                |   |
  /                /                /          /                /   /

  Gtr IV
  E.  S  +E   E    E.  S  +E   E    E.  E.     E.  S  +E   E    E.  E   S
|---------------|----------------|----------|-------------15-|-16--18--19-||
|---------------|-------------12-|-14--15---|-17--18-(18)----|------------||
|-9--10-(10)-12-|-13--15-(15)----|----------|-------------12-|-13--15--16-||
|---------------|--------------9-|-11--12---|-14--15-(15)----|------------||
|-7---8--(8)-10-|-11--13-(13)----|----------|----------------|------------||
|---------------|----------------|----------|----------------|------------||


  Slightly Faster Q=100
  A5                               F5
 4/4
  Gtr III
   W                               W
   |                               |
   /                               /

  Gtr II
   E.  S  +E  E  +Q.        +E     E.  S  +S  S E +H
|--------------------------------|-----------------------|
|-------------8--(8)--------(8)\-|--------------4-(4)----|
|------5--(5)--------------------|-----1--(1)-2----------|
|-/7--(7)------------------------|-3--(3)----------------|
|--------------------------------|-----------------------|
|--------------------------------|-----------------------|
|
| Gtr IV
|  H             +Q    +Q          W
|-20------------(20)--(20)\------|-----------------------|
|--------------------------------|-----------------------|
|-17------------(17)--(17)\------|-----------------------|
|--------------------------------|-----------------------|
|--------------------------------|-----------------------|
|--------------------------------|-----------------------|


  A5                         F5
   W                         W
   |                         |
   /                         /

   E.  S  +E  E +Q.   +E     E.  S  +S  S E +H
|--------------------------|-----------------------|
|-------------8-(8)---(8)\-|--------------4-(4)----|
|------5--(5)--------------|-----1--(1)-2----------|
|-/7--(7)------------------|-3--(3)----------------|
|--------------------------|-----------------------|
|--------------------------|-----------------------|
|
|  W                         W
|--------------------------|-----------------------|
|--------------------------|-----------------------|
|--------------------------|-----------------------|
|--------------------------|-----------------------|
|--------------------------|-----------------------|
|--------------------------|-----------------------|


  C5                              Ab5
    W                             W
    |                             |
    /                             /

    E.   S  +E   E  +Q.    +E     E.  S  +S  S E +H
|-------------------------------|-----------------------|
|---------------11-(11)---(11)\-|--------------7-(7)----|
|--------8--(8)-----------------|-----4--(4)-5----------|
|-/10--(10)---------------------|-6--(6)----------------|
|-------------------------------|-----------------------|
|-------------------------------|-----------------------|


  C5                              Ab5
    W                             W
    |                             |
    /                             /

    E.   S  +E   E  +Q.    +E     E.  S  +S  S E +H
|-------------------------------|-----------------------||
|---------------11-(11)---(11)\-|--------------7-(7)----||
|--------8--(8)-----------------|-----4--(4)-5----------||
|-/10--(10)---------------------|-6--(6)----------------||
|-------------------------------|-----------------------||
|-------------------------------|-----------------------||


  Slightly Slower Q=92
  C#7+9             N.C.
  Gtrs II, III
  H    +Q   +Q      Wx3
|-----------------|--------|
|-5----(5)--(5)\--|--------|
|-4----(4)--(4)\--|--------|
|-3----(3)--(3)\--|--------|
|-4----(4)--(4)\--|--------|
|-----------------|--------|


  C#5 E5      F5      G5  G#5  B5C5  C#5 E5       F5       G5
                                    3/4
  Gtr II
   E. S +E     E  +S   E.  E   S S    E. S  +E     E  +S   E.
|----------------------------------|----------------------------||
|----------------------------------|----------------------------||
|--6---------------------------4s5-|--6-------------------------||
|--6--2-(2)----3--(3)--5---6---4s5-|--6--2--(2)----3--(3)--5----||
|--4--2-(2)----3--(3)--5---6---2s3-|--4--2--(2)----3--(3)--5----||
|-----0-(0)----1--(1)--3---4-------|-----0--(0)----1--(1)--3----||
|
| Gtr I
|  E. S +S  S  E  +S   E.  S S S S    E. S  +S  S  E  +S   E  S
|--9--------9--7--(7)--------------|----------------------------||
|--------------------------9-------|--8---------8--6--(6)-------||
|-----9-(9)-----------10---------6-|-----------------------6--7-||
|----------------------------6-9---|-----9--(9)-----------------||
|----------------------------------|----------------------------||
|----------------------------------|----------------------------||
|
| Gtrs III, IV
|  Q.          E  +Q       Q          Q     +E     E  +Q
|----------------------------------|----------------------------||
|-14----------12-(12)--------------|----------------------------||
|-------------------------13-------|-12----(12)---10-(10)\------||
|----------------------------------|----------------------------||
|----------------------------------|----------------------------||
|----------------------------------|----------------------------||


  E5        G5         G#5     Bb5   B5   D5Eb5
 4/4
   E.        S  +E      E  +S  E.     E   S S
|---------------------------------------------|
|---------------------------------------------|
|--9--------------------------------------7s8-|
|--9---------5--(5)-----6--(6)-8------9---7s8-|
|--7---------5--(5)-----6--(6)-8------9---5s6-|
|------------3--(3)-----4--(4)-6------7-------|
|
|  S   S  S  S  +S   S  E  +S  E   S  S S S S
|-12----------------12-10-(10)----10--7-------|
|------------------------------9--------------|
|-----12----12-(12)-----------------------7---|
|--------12-----------------------------9---8-|
|---------------------------------------------|
|---------------------------------------------|
|
|  Q.                   E  +Q         Q
|---------------------------------------------|
|-17-------------------15-(15)----------------|
|------------------------------------16-------|
|---------------------------------------------|
|---------------------------------------------|
|---------------------------------------------|


  E5      G5       G#5       Bb5     G5  Bb5     B5      Db5     D5    F5 F#5
 3/4                                4/4
   E.     S  +E     E    +S  E.       E. S +E     E  +S   E.      E     S  S
|---------------------------------||-----------------------------------------|
|---------------------------------||-----------------------------------------|
|--9------------------------------||-12--------------------------------10s11-|
|--9------5--(5)----6----(6)-8----||-12--8-(8)----9--(9)-11------12----10s11-|
|--7------5--(5)----6----(6)-8----||-10--8-(8)----9--(9)-11------12-----8s=9-|
|---------3--(3)----4----(4)-6----||-----6-(6)----7--(7)--9------10----------|
|
|  S  S S S  +S  S  S S  +S  E  S     E. S +S  S  E  +S   S  S S  S  S  S  S
|--6-------------6--4-------------||-----------------------------10----------|
|---------3--(3)-------------5----||--8--------8--9--(9)---------------11----|
|-------0-------------------------||-----6-(6)------------9----9----10----12-|
|-----5---------------6--(6)----6-||-------------------------9---------------|
|---------------------------------||-----------------------------------------|
|---------------------------------||-----------------------------------------|
|
|  Q         +E     E    +Q           Q.          E  +Q           Q
|---------------------------------||-----------------------------------------|
|---------------------------------||-----------------------------------------|
|-15--------(15)---13---(13)------||-12----------10-(10)---------------------|
|---------------------------------||-----------------------------12----------|
|---------------------------------||-----------------------------------------|
|---------------------------------||-----------------------------------------|


  G5        Bb5     B5        Db5 D5  E5
   E.        S  +E  E     +S   E.  E  E
|---------------------------------------|
|---------------------------------------|
|-12----------------------------------9-|
|-12---------8--(8)-9-----(9)-11--12--9-|
|-10---------8--(8)-9-----(9)-11--12--7-|
|------------6--(6)-7-----(7)--9--10----|
|
|  S   S  S  S  +E  S  S  +S   E. +Q
|---------------------------------------|
|--------12-----------------------------|
|-----13----12-(12)---10-(10)--9--(9)---|
|-11----------------9-------------------|
|---------------------------------------|
|---------------------------------------|
|
|  Q.               E     +H
|---------------------------------------|
|---------------------------------------|
|---------------------------------------|
|-11----------------9-----(9)-----------|
|---------------------------------------|
|---------------------------------------|


  F5VIII          E5VII            D5         C5               B5  Ab5
 2/4                              3/8        2/4              3/8
  Gtrs II, III
  H                H                Q.         H                E.  E.
  |                |                |          |                |   |
  /                /                /          /                /   /

  Gtr IV
  E.  S  +E   E    E.  S  +E   E    E.  E.     E.  S  +E   E    E.  E   S
|---------------|----------------|----------|-------------15-|-16--18--19-||
|---------------|-------------12-|-14--15---|-17--18-(18)----|------------||
|-9--10-(10)-12-|-13--15-(15)----|----------|-------------12-|-13--15--16-||
|---------------|--------------9-|-11--12---|-14--15-(15)----|------------||
|-7---8--(8)-10-|-11--13-(13)----|----------|----------------|------------||
|---------------|----------------|----------|----------------|------------||


  Slightly Faster Q=100
  A5                               F5
 4/4
  Gtr III
   W                                W
   |                                |
   /                                /

  Gtr II
   E.  S  +E  E  +Q.        +E      E.  S  +S  S  E  +H
|--------------------------------|----------------------------|
|-------------8--(8)--------(8)\-|----------------4--(4)------|
|------5--(5)--------------------|------1--(1)-2--------------|
|-/7--(7)------------------------|--3--(3)--------------------|
|--------------------------------|----------------------------|
|--------------------------------|----------------------------|
|
| Gtr IV
|  H             +Q    +Q           Q.            E  +Q    Q
|-20------------(20)--(20)\------|----------------------------|
|--------------------------------|-16------------15-(15)--13--|
|-17------------(17)--(17)\------|----------------------------|
|--------------------------------|----------------------------|
|--------------------------------|----------------------------|
|--------------------------------|----------------------------|


  A5                                  F5
    W                                   W
    |                                   |
    /                                   /

    E.  S   +E   E  +Q.        +E       E.  S  +S  S E +H
|-----------------------------------|-------------------------|
|----------------8--(8)--------(8)\-|----------------4-(4)----|
|-------5---(5)---------------------|-------1--(1)-2----------|
|--/7--(7)--------------------------|---3--(3)----------------|
|-----------------------------------|-------------------------|
|-----------------------------------|-------------------------|
|
|                          \1/
|   Q       +E   E  +Q    +Q           +W
|-----------------------------------|-------------------------|
|-/17------(17)s10-(10)--(10)-------|-(10)--------------------|
|-----------------------------------|-------------------------|
|-----------------------------------|-------------------------|
|-----------------------------------|-------------------------|
|-----------------------------------|-------------------------|


  C5                                                  Ab5
    W                                                  W
    |                                                  |
    /                                                  /

    E.   S  +E   E  +Q.                        +E      E.  S  +S  S  E  +H
|---------------------------------------------------|-----------------------------|
|---------------11-(11)-----------------------(11)\-|----------------7--(7)-------|
|--------8--(8)-------------------------------------|------4--(4)-5---------------|
|-/10--(10)-----------------------------------------|--6--(6)---------------------|
|---------------------------------------------------|-----------------------------|
|---------------------------------------------------|-----------------------------|
|
|   Q.           E  +S   +S       +S   +S   Q          Q.            E  +Q     Q
|--20-----------18-(18)-(18)b20==(18)r(18)----------|-----------------------------|
|------------------------------------------20-------|-19------------18-(18)--\16--|
|--17-----------15-(15)-(15)b17==(15)r(15)----------|-----------------------------|
|------------------------------------------17-------|-16------------15-(15)--\13--|
|---------------------------------------------------|-----------------------------|
|---------------------------------------------------|-----------------------------|


  C5                                    Ab5
    W                                     W
    |                                     |
    /                                     /

    E.   S  +E   E  +Q.          +E       E.  S  +S  S E +H
|-------------------------------------|-------------------------|
|---------------11-(11)---------(11)\-|----------------7-(7)----|
|--------8--(8)-----------------------|-------4--(4)-5----------|
|-/10--(10)---------------------------|---6--(6)----------------|
|-------------------------------------|-------------------------|
|-------------------------------------|-------------------------|
|
|   Q.           E  +E   +E   Q          +W
|--15---------------------------------|-------------------------|
|---------------13-(13)-(13)s16-------|-(16)--------------------|
|--12---------------------------------|-------------------------|
|---------------10-(10)-(10)s13-------|-(13)--------------------|
|-------------------------------------|-------------------------|
|-------------------------------------|-------------------------|


  C#5
    W
    |
    /

    E.   S  +E   E  +Q.                               +E
|----------------------------------------------------------|
|---------------12-(12)------------------------------(12)\-|
|--------9--(9)--------------------------------------------|
|-/11--(11)------------------------------------------------|
|----------------------------------------------------------|
|----------------------------------------------------------|
|
|                    |-----5-----|  |-----5-----|
|   q        q       T  T  T  T  T  T  T  T  T  T  q
|--21-------21------21p20p19p18p17-16h17h18h19h20h21-------|
|----------------------------------------------------------|
|----------------------------------------------------------|
|----------------------------------------------------------|
|----------------------------------------------------------|
|----------------------------------------------------------|


  A5
   W
   |
   /

   E.  S  +S  S E +H
|------------------------------------------------------------------------------|
|---------------8-(8)----------------------------------------------------------|
|------5--(5)-6----------------------------------------------------------------|
|--7--(7)----------------------------------------------------------------------|
|------------------------------------------------------------------------------|
|------------------------------------------------------------------------------|
|
|                  |-----5-----|  |-----5-----|  |-----5-----|  |-----5-----|
|  q       q       T  T  T  T  T  T  T  T  T  T  T  T  T  T  T  T  T  T  T  T
|-21------21---------------------17p16p15p14p13----------------17p16p15p14p13--|
|-----------------17p16p15p14p13----------------17p16p15p14p13-----------------|
|------------------------------------------------------------------------------|
|------------------------------------------------------------------------------|
|------------------------------------------------------------------------------|
|------------------------------------------------------------------------------|


  C#5
    W
    |
    /

    E.   S  +E   E  +Q.                               +E
|----------------------------------------------------------|
|---------------12-(12)------------------------------(12)\-|
|--------9--(9)--------------------------------------------|
|-/11--(11)------------------------------------------------|
|----------------------------------------------------------|
|----------------------------------------------------------|
|
|                    |-----5-----|  |-----5-----|
|   q        q       T  T  T  T  T  T  T  T  T  T  q
|--21-------21------21p20p19p18p17-16h17h18h19h20h21-------|
|----------------------------------------------------------|
|----------------------------------------------------------|
|----------------------------------------------------------|
|----------------------------------------------------------|
|----------------------------------------------------------|


  A5
   W
   |
   /

   E.                S  +S       S        E +H
|-------------------------------------------------------------------------------|
|-----------------------------------------8-(8)---------------------------------|
|--------------------5--(5)------6----------------------------------------------|
|--7----------------(7)---------------------------------------------------------|
|-------------------------------------------------------------------------------|
|-------------------------------------------------------------------------------|
|
|  |-----5-----|         |------5------|     |-----5-----|     |-----5-----|
|  T  T  T  T  T  e      T  T  T    T  T  e  T  T  T  T  T  e  T  T  T  T  T  e
|-------------19h21-------------------19h21-------------19h21-------------19h21-|
|-------19h21-----------------19h==21-------------19h21-------------19h21-------|
|-18h21-----------------18h21---------------18h21-------------18h21-------------|
|-------------------------------------------------------------------------------|
|-------------------------------------------------------------------------------|
|-------------------------------------------------------------------------------|


  E5VII
    W
    |
    /

    E.                  S         +E            E            +E            E            +S        S      +E
|------------------------------------------------------------------------------------------------------------------------|
|----------------------------------------------15-----------(15)---------------------------------------------------------|
|----------------------12--------(12)-------------------------------------12-----------(12)------------------------------|
|-/14-----------------(14)-----------------------------------------------------------------------14-----(14)\------------|
|------------------------------------------------------------------------------------------------------------------------|
|------------------------------------------------------------------------------------------------------------------------|
|
|   |----5----| |------5-------|   |----5----|  |----5----|   |----5----|  |----5----|   |-----5------|   |-----5-----|
|   T  T  T T T T T T       T  T   T  T  T T T  T T T  T  T   T  T  T T T  T T T  T  T   T  T  T    T T   T   T T  T  T
|--12p11p10p9p8-7h8h9h=====10h11--12p11p10p9p8--7h8h9h10h11--12p11p10p9p8--7h8h9h10h11--12p11p10p===9p8---7h==8h9h10h11--|
|------------------------------------------------------------------------------------------------------------------------|
|------------------------------------------------------------------------------------------------------------------------|
|------------------------------------------------------------------------------------------------------------------------|
|------------------------------------------------------------------------------------------------------------------------|
|------------------------------------------------------------------------------------------------------------------------|


  C5
   W
   |
   /

   E.                S  +S       S        E  +E              E             +S   E.
|------------------------------------------------------------8-------------(8)------|
|----------------------------------------11-(11)-------------------------------11---|
|--------------------8--(8)------9--------------------------------------------------|
|-10---------------(10)-------------------------------------------------------------|
|-----------------------------------------------------------------------------------|
|-----------------------------------------------------------------------------------|
|
|  |-----6-----|         |------5------|      |-----5-----|  |-----5-----|
|  T  T  T T T T E       T  T  T    T  T  E   T  T  T  T  T  T  T  T  T  T  q
|-12p11p10p9p8p7p6------15p14p13p==12p11p10--17p16p15p14p13p12-15h17h18h19-20-------|
|-----------------------------------------------------------------------------------|
|-----------------------------------------------------------------------------------|
|-----------------------------------------------------------------------------------|
|-----------------------------------------------------------------------------------|
|-----------------------------------------------------------------------------------|


  E5VII
    W
    |
    /

    E.                  S         +E            E            +E            E            +S        S      +E
|-------------------------------------------------------------------------15-----------(15)-------------------------------|
|----------------------------------------------15-----------(15)---------------------------------15-----(15)\-------------|
|----------------------12--------(12)-------------------------------------------------------------------------------------|
|-/14-----------------(14)------------------------------------------------------------------------------------------------|
|-------------------------------------------------------------------------------------------------------------------------|
|-------------------------------------------------------------------------------------------------------------------------|
|
|   |----5----| |------5-------|   |----5----|  |----5----|   |----5----|  |----5----|   |-----5------|   |-----5-----|
|   T  T  T T T T T T       T  T   T  T  T T T  T T T  T  T   T  T  T T T  T T T  T  T   T  T  T    T T   T   T T  T  T
|--12p11p10p9p8-7h8h9h=====10h11--12p11p10p9p8--7h8h9h10h11--12p11p10p9p8--7h8h9h10h11--12p11p10p===9p8---7h==8h9h10h11---|
|-------------------------------------------------------------------------------------------------------------------------|
|-------------------------------------------------------------------------------------------------------------------------|
|-------------------------------------------------------------------------------------------------------------------------|
|-------------------------------------------------------------------------------------------------------------------------|
|-------------------------------------------------------------------------------------------------------------------------|


  C5
   W
   |
   /

   E.                     S      +S      S      E           +H
|------------------------------------------------------------------------------------------------------||
|----------------------------------------------11----------(11)----------------------------------------||
|-------------------------8------(8)-----9-------------------------------------------------------------||
|-10--------------------(10)---------------------------------------------------------------------------||
|------------------------------------------------------------------------------------------------------||
|------------------------------------------------------------------------------------------------------||
|
|  |----5----|  |------5-------|  |----5-----|  |---5----|   |---5---| |---5---| |---5---| |---5---|
|  T  T  T T T  T  T  T      T T  T  T T   T T  T  T T T T   T T T T T T T T T T T T T T T T T T T T
|-12p11p10p9p8-----------------------------------------------------------------------------------------||
|--------------12p11p10p=====9p8-----------------------------------------------------------------------||
|--------------------------------11p10p9p==8p7---------------------------------------------------------||
|----------------------------------------------11p10p9p8p7---6p5p4p3p2---------------------------------||
|----------------------------------------------------------------------6p5p4p3p2---------------2h3h4---||
|--------------------------------------------------------------------------------6p5p4p3-4h5h6---------||


  A Tempo Q=125
  D5               C5                D5               C5
 5/4
  Gtrs II, III
  H.      +H        H.      +H       H.      +H       H.      +H
  |        |        |        |       |        |       |        |
  /        /        /        /       /        /       /        /

  Gtr IV
  H.      +H        H.      +H       H.      +H       H.      +H
|----------------|-----------------|----------------|----------------|
|-6-------(6)----|--5-------(5)----|-6-------(6)----|-5-------(5)----|
|-7-------(7)----|--5-------(5)----|-7-------(7)----|-5-------(5)----|
|-7-------(7)----|--5-------(5)----|-7-------(7)----|-5-------(5)----|
|-5-------(5)----|-(5)------(5)----|----------------|----------------|
|----------------|-----------------|----------------|----------------|
  H.      +H       +H.      +H


  D5                            C5
   H.              +H            H.              +H
   |                |            |                |
   /                /            /                /

   H.              +H            H.              +H
|-----------------------------|-----------------------------|
|--6---------------(6)--------|--5---------------(5)--------|
|--7---------------(7)--------|--5---------------(5)--------|
|--7---------------(7)--------|--5---------------(5)--------|
|-----------------------------|-----------------------------|
|-----------------------------|-----------------------------|
|
| Gtr V
|            ~~            ~~              ~~            ~~
|  E   E  E  Q   E  E   E  Q     E   E  E  Q   E  E   E  Q
|-----------------------------|-----------------------------|
|-----------------------------|-----------------------------|
|-----14----15-----14-----15--|-----15----14-----15-----14--|
|-12-----12-----12-----12-----|-10-----10-----10-----10-----|
|-----------------------------|-----------------------------|
|-----------------------------|-----------------------------|


  D5                            C5
   H.              +H            H.              +H
   |                |            |                |
   /                /            /                /

   H.              +H            H.              +H
|-----------------------------|------------------------------||
|--6---------------(6)--------|--5---------------(5)---------||
|--7---------------(7)--------|--5---------------(5)---------||
|--7---------------(7)--------|--5---------------(5)---------||
|-----------------------------|------------------------------||
|-----------------------------|------------------------------||
|
|            ~~            ~~              ~~            ~~
|  E   E  E  Q   E  E   E  Q     E   E  E  Q   E  E   E  Q
|-----------------------------|------------------------------||
|-----------------------------|------------------------------||
|-----14----15-----14-----15--|-----15----14-----15-----14---||
|-12-----12-----12-----12-----|-10-----10-----10-----10------||
|-----------------------------|------------------------------||
|-----------------------------|------------------------------||


  Dm    Dm+5  Dm  Dm+5 C7    C6    C7  C6
  Gtr II
  PM  PM  PM|   PM     PM  PM  PM|   PM
  E E E E E E E E Q    E E E E E E E E Q
|--------------------|--------------------|
|--------------------|--------------------|
|--------------------|--------------------|
|---7---8-----7---8--|---8---7-----8---7--|
|-5-5-5-5-5-5-5-5-5--|-3-3-3-3-3-3-3-3-3--|
|--------------------|--------------------|
|
| Gtr III
| PM  PM  PM|   PM     PM  PM  PM|   PM
| E E E E E E E E Q    E E E E E E E E Q
|--------------------|--------------------|
|--------------------|--------------------|
|---7---7-----7---7--|---9---9-----9---9--|
|---7---8-----7---8--|---8---7-----8---7--|
|-5---5---5-5---5----|--------------------|
|--------------------|-8---8---8-8---8----|
|
| Gtr IV
| E E E q   E E E Q    E E E q   E E E Q
|--------------------|--------------------|
|---6---6-----6---6--|---5---5-----5---5--|
|-7---7-----7---7----|-5---5-----5---5----|
|--------------------|--------------------|
|--------------------|--------------------|
|--------------------|--------------------|


  Dm    Dm+5  Dm  Dm+5 C7    C6    C7  C6
  PM  PM  PM|   PM     PM  PM  PM|   PM
  E E E E E E E E Q    E E E E E E E E Q
|--------------------|---------------------|
|--------------------|---------------------|
|--------------------|---------------------|
|---7---8-----7---8--|---8---7-----8---7---|
|-5-5-5-5-5-5-5-5-5--|-3-3-3-3-3-3-3-3-3---|
|--------------------|---------------------|
|
| PM  PM  PM|   PM     PM  PM  PM|   PM
| E E E E E E E E Q    E E E E E E E E Q
|--------------------|---------------------|
|--------------------|---------------------|
|---7---7-----7---7--|---9---9-----9---9---|
|---7---8-----7---8--|---8---7-----8---7---|
|-5---5---5-5---5----|---------------------|
|--------------------|-8---8---8-8---8-----|
|
| E E E q   E E E Q    E E E q   E E E Q
|--------------------|---------------------|
|---6---6-----6---6--|---5---5-----5---5---|
|-7---7-----7---7----|-5---5-----5---5-----|
|--------------------|---------------------|
|--------------------|---------------------|
|--------------------|---------------------|


  Bbmaj7 Bb6    BbmajBb6   Am7    Am+5  Am7  Am+5
  PM   PM   PM|    PM      PM   PM  PM|    PM
  E  E E  E E E  E E  Q    E  E E E E E  E E Q
|------------------------|----------------------|
|------------------------|----------------------|
|------------------------|----------------------|
|------------------------|----------------------|
|---12---10-----12---10--|---10---8-----10---8--|
|-6--6-6--6-6-6--6-6--6--|-5--5-5-5-5-5--5-5-5--|
|
| PM   PM   PM|    PM      PM   PM  PM|    PM
| E  E E  E E E  E E  Q    E  E E E E E  E E Q
|------------------------|----------------------|
|------------------------|----------------------|
|----7----7------7----7--|----5---5------5---5--|
|----7----5------7----5--|----5---3------5---3--|
|------------------------|----------------------|
|-6----6----6-6----6-----|-5----5---5-5----5----|
|
| E  E E  q   E  E E  Q    E  E E q   E  E E Q
|------------------------|----------------------|
|----3----3------3----3--|----1---1------1---1--|
|-3----3------3----3-----|-2----2-----2----2----|
|------------------------|----------------------|
|------------------------|----------------------|
|------------------------|----------------------|


  Gm7   Gm6 Fmaj7 F6   Em7   Em6   A5
  PM  PM  PM|   PM     PM  PM  PM|   PM
  E E E E E E E E Q    E E E E E E E E Q
|--------------------|---------------------||
|--------------------|---------------------||
|--------------------|---------------------||
|-------------2------|-------------2---2---||
|---8---7---------5--|---5---4-----0---0---||
|-3-3-3-3-3-1-1-1-1--|-0-0-0-0-0-0---0-----||
|
| PM  PM  PM|   PM     PM  PM  PM|   PM
| E E E E E E E E Q    E E E E E E E E Q
|--------------------|---------------------||
|--------------------|---------------------||
|---3---3-----2---2--|---------------------||
|---3---2-----2---0--|---5---5-----2---2---||
|--------------------|---5---4-----0---0---||
|-3---3---3-1---1----|-0---0---0-0---0-----||
|
| E E E q   E E E Q    E E E q   E E E Q
|--------------------|---------------------||
|--------------------|---------------------||
|---3---3-----2---2--|---0---0-----3---2---||
|-5---5-----3---3----|-2---2---------------||
|--------------------|-----------0---0-----||
|--------------------|---------------------||


  D5                         C5
 6/4                        5/4
  Gtr III
  E  E E E E E E E E E E E   E E E E E E E E  E  E
  |  | | | | | | | | | | |   | | | | | | | |  |  |
  /  / / / / / / / / / / /   / / / / / / / /  /  /

  PM         PM  PM      PM--|         PM  PM
  E  E E E E E E E E E E E   E E E E E E E E  E  E
|--------------------------|-----------------------|
|--------------------------|-----------------------|
|----3-2-3-2---3---2-3-2---|---3-2-3-2---3----2--3-|
|-0----------0---0-------0-|-----------------------|
|--------------------------|-3---------3---3-------|
|--------------------------|-----------------------|
|
| Gtr IV
| W.                         W               +Q
|--------------------------|-----------------------|
|-6------------------------|-5---------------(5)---|
|-7------------------------|-5---------------(5)---|
|-7------------------------|-5---------------(5)---|
|--------------------------|-----------------------|
|--------------------------|-----------------------|


  D5                         C5
 6/4                        5/4
  E  E E E E E E E E E E E   E E E E E E E E  E  E
  |  | | | | | | | | | | |   | | | | | | | |  |  |
  /  / / / / / / / / / / /   / / / / / / / /  /  /

  PM         PM  PM          PM        PM  PM
  E  E E E E E E E E E E E   E E E E E E E E  E  E
|--------------------------|------------------------|
|--------------------------|------------------------|
|----3-2-3-2---3---2-3-2---|---3-2-3-2---3----2--3--|
|-0----------0---0-------0-|------------------------|
|--------------------------|-3---------3---3--------|
|--------------------------|------------------------|
|
| W.                         W               +Q
|--------------------------|------------------------|
|-6------------------------|-5---------------(5)----|
|-7------------------------|-5---------------(5)----|
|-7------------------------|-5---------------(5)----|
|--------------------------|------------------------|
|--------------------------|------------------------|


  A5            Bb5
 6/4
  E  E E  E E E E  E E  E E E
  |  | |  | | | |  | |  | | |
  /  / /  / / / /  / /  / / /

              PM            PM
  E  E E  E E E E  E E  E E E
|-----------------------------|
|-----------------------------|
|-----------------------------|
|----3-2--3-2------3-2--3-2---|
|-0-----------0-1-----------1-|
|-----------------------------|
|
| E  E E  E E E E  E E  E E E
|-----------------------------|
|-----------------------------|
|---10-9-10-9-----10-9-10-9---|
|-7-----------7-8-----------8-|
|-----------------------------|
|-----------------------------|


  C5           G5              A5            Bb5
 5/4                          6/4
   E  E E  E E  E  E  E E  E   E  E E  E E E E  E E  E E E
   |  | |  | |  |  |  | |  |   |  | |  | | | |  | |  | | |
   /  / /  / /  /  /  / /  /   /  / /  / / / /  / /  / / /

                PM    PM                   PM
   E  E E  E E  E  E  E E  E   E  E E  E E E E  E E  E E E
|----------------------------|------------------------------|
|----------------------------|------------------------------|
|----------------------------|------------------------------|
|-----3-2--3-2-----3----2--3-|----3-2--3-2------3-2--3-2----|
|--3-------------------------|-0-----------0-1-----------1--|
|---------------3-----3------|------------------------------|
|
|  E  E E  E E  E  E  E E  E   E  E E  E E E E  E E  E E E
|----------------------------|------------------------------|
|----------------------------|------------------------------|
|----10-9-10-9----10----9-10-|---10-9-10-9-----10-9-10-9----|
|-10-------------------------|-7-----------7-8-----------8--|
|--------------10----10------|------------------------------|
|----------------------------|------------------------------|


  F5          E5            A5            A5
 5/4                       6/4
  E  E E  E E E  E E E  E   E  E E  E E E E  E E  E E E
  |  | |  | | |  | | |  |   |  | |  | | | |  | |  | | |
  /  / /  / / /  / / /  /   /  / /  / / o /  / /  / / o

              PM   PM
  E  E E  E E E  E E E  E   E  E E  E E E E  E E  E E E
|-------------------------|-----------------------------|
|-------------------------|-----------------------------|
|-------------------------|-----------------------------|
|----3-2--3-2----3---2--3-|----3-2--3-2------3-2--3-2---|
|-------------------------|-0-------------0-------------|
|-1-----------0----0------|-------------0-------------0-|
|
| E  E E  E E E  E E E  E   E  E E  E E E E  E E  E E E
|-------------------------|-----------------------------|
|-------------------------|-----------------------------|
|---10-9-10-9---10---9-10-|---10-9-10-9-----10-9-10-9---|
|-------------------------|-7-------------7-------------|
|-8-----------7----7------|-------------7-------------7-|
|-------------------------|-----------------------------|


  A5              A5
  E  E  E  E  E E E  E  E  E  E E
  |  |  |  |  | | |  |  |  |  | |
  /  /  /  /  / o /  /  /  /  / o

  E  E  E  E  E E E  E  E  E  E E
|---------------------------------||
|---------------------------------||
|----3--2--3--2------3--2--3--2---||
|---------------------------------||
|-0---------------0---------------||
|---------------0---------------0-||
|
| E  E  E  E  E E E  E  E  E  E E
|---10--9-10--9-----10--9-10--9---||
|---11-10-11-10-----11-10-11-10---||
|---------------------------------||
|-7---------------7---------------||
|---------------7---------------7-||
|---------------------------------||


  Dm           Em+5              C                 F
 12/8
  PM-------------------------------------------------------------
  E  E E E E E  E   E E  E E E   E   E  E  E   E E E  E E E E E
|------------------------------|--------------------------------|
|------------------------------|--------------------------------|
|------------------------------|--------------------------------|
|----8-7-8-7-------10-8-10-8---|----------------------8-7-8-7---|
|-5----------5--7------------7-|----12-10-12--10---8----------8-|
|------------------------------|-8---------------8--------------|
|
| H.            H.               Q.       +E   E E H.
|------------------------------|--------------------------------|
|-6-------------8--------------|-5--------(5)----5-6------------|
|-7-------------9--------------|-5--------(5)--7---5------------|
|-7------------10--------------|-5--------(5)------7------------|
|------------------------------|--------------------------------|
|------------------------------|--------------------------------|


  Bb               Em7b5
 ---------------------------------|
  E   E  E  E  E E E   E  E  E  E E
|-------------------------------------|
|-------------------------------------|
|-------------------------------------|
|-------------------------------------|
|----12-10-12-10------12-10-12-10-----|
|-6--------------6-0--------------0---|
|
| H.               H.
|-------------------------------------|
|-6----------------8------------------|
|-7----------------7------------------|
|-8----------------8------------------|
|-------------------------------------|
|-------------------------------------|


  A            C#m+5         Dm           Em+5
  PM----------------------------------------------------------
  E  E E E E E E E E E E E   E  E E E E E  E   E E   E  E  E
|--------------------------|---------------------------------|
|--------------------------|---------------------------------|
|--------------------------|---------------------------------|
|----8-7-8-7-----8-7-8-7---|----8-7-8-7-------10-8--10--8----|
|-0----------0-4---------4-|-5----------5--7---------------7-|
|--------------------------|---------------------------------|
|
| H.           Q   Q   Q     H.            Q.       +E  E  E
|--------------------------|---------------------------------|
|-5------------5-------5---|-6-------------8--------(8)-8-10-|
|-6------------6---7-------|-7-------------9--------(9)------|
|-7------------7-----------|-7------------10-------(10)------|
|--------------------------|---------------------------------|
|--------------------------|---------------------------------|


  C7                F
 -------------------------------|
   E   E  E  E  E E  E  E E E E E
|----------------------------------|
|----------------------------------|
|----------------------------------|
|-----------------------8-7-8-7----|
|-----12-10-12-10----8----------8--|
|--8--------------8----------------|
|
|  H.                H.
|----------------------------------|
|-11----------------10-------------|
|--9----------------10-------------|
|-10----------------10-------------|
|----------------------------------|
|----------------------------------|


  Bb               Em7b5
  PM---------------------------------
  E   E  E  E  E E E   E  E  E  E E
|-----------------------------------|
|-----------------------------------|
|-----------------------------------|
|-----------------------------------|
|----12-10-12-10------12-10-12-10---|
|-6--------------6-0--------------0-|
|
| H.               H.
|-----------------------------------|
|-6----------------8----------------|
|-7----------------7----------------|
|-8----------------8----------------|
|-----------------------------------|
|-----------------------------------|


  Asus4                      A            A7b9
 -----------------------------------------------------|
  E  E E E E E E E E E E E   E  E E E E E  E  E E E E E
|--------------------------|-----------------------------||
|--------------------------|-----------------------------||
|--------------------------|-----------------------------||
|--------------------------|----8-7-8-7-------8-7-8-7----||
|-0--8-7-8-7---0-8-7-8-7---|-0-------------0-------------||
|------------0-----------0-|------------0-------------0--||
|
| W.                         H.            H.
|--------------------------|-----------------------------||
|-5------------------------|-5------------11-------------||
|-7------------------------|-6------------12-------------||
|-7------------------------|-7------------11-------------||
|--------------------------|-----------------------------||
|--------------------------|-----------------------------||


 Church Organ Solo
  (Dm)                             (Em+5)
 6/4
   PM-------------------------------------------------------------------
   E     E     E  E     E     E     E        E     E  E     E     E
|----------------------------------------------------------------------|
|----------------------------------------------------------------------|
|----------------------------------------------------------------------|
|--------8-----7--8-----7-------------------10-----8-10-----8----------|
|--5--------------------------5-----7-----------------------------7----|
|----------------------------------------------------------------------|
|
| Gtr III
|  E     E     E  E     E     E     E        E     E  E     E     E
|----------------------------------------------------------------------|
|----------------------------------------------------------------------|
|-------15----14-15----14-------------------17----15-17----15----------|
|-12-------------------------12----14----------------------------14----|
|----------------------------------------------------------------------|
|----------------------------------------------------------------------|
|
| Gtr IV
|  S  S  S  S  E  S  S  S  S  S  S  T  T  S  S  S  E  S  S  S  S  S  S
|----------------------17-15----17-15h17p15-------20-15----------------|
|-15----15-17-18-15-18-------18-------------18-17-------17-------------|
|----14----------------------------------------------------17----------|
|-------------------------------------------------------------17-14----|
|-------------------------------------------------------------------15-|
|----------------------------------------------------------------------|


  (C)                        (F)
 -------------------------------------------------------------|
   E     E  E     E  E     E  E     E     E        E        E  E
|----------------------------------------------------------------|
|----------------------------------------------------------------|
|----------------------------------------------------------------|
|-----------------------------------8-----7--------8--------7----|
|-------12-10----12-10--------8--------------------------------8-|
|--8-----------------------8-------------------------------------|
|
|  E     E  E     E  E     E  E     E     E        E        E  E
|----------------------------------------------------------------|
|----------------------------------11----10-------11-------10----|
|-------14-12----14-12-------10-------------------------------10-|
|-10----------------------10-------------------------------------|
|----------------------------------------------------------------|
|----------------------------------------------------------------|
|
|                                         |--3--|  |--3--|
|  S  S  E  S  S  E  S  S  E  S  S  S  S  S  S  S  S  S  S  Q
|----------------15-15-17-18-17-15-13----------------------------|
|----------17-18-17-17-18-20----------13-------------------------|
|----------17-19-------------------------14h15p14-12h14p12-10----|
|-14-15-17-------------------------------------------------------|
|----------------------------------------------------------------|
|----------------------------------------------------------------|


  (Bb)                                                  (Em7b5)
   PM---------------------------------------------------------------------------------|
   E        E        E        E        E        E        E     E     E     E     E     E
|-------------------------------------------------------------------------------------------|
|-------------------------------------------------------------------------------------------|
|-------------------------------------------------------------------------------------------|
|-------------------------------------------------------------------------------------------|
|----------12-------10-------12-------10----------------------12----10----12----10----------|
|--6--------------------------------------------6--------0-----------------------------0----|
|
|  E        E        E        E        E        E        E     E     E     E     E     E
|-------------------------------------------------------------------------------------------|
|----------10--------8-------10--------8----------------------10-----8----10-----8----------|
|-------------------------------------------------------------------------------------------|
|--8--------------------------------------------8-------------------------------------------|
|--------------------------------------------------------7-----------------------------7----|
|-------------------------------------------------------------------------------------------|
|
|  |--3--|  |--3--|  |--3--|  |--3--|  |--3--|  |--3--|
|  S  S  S  S  S  S  S  S  S  S  S  S  S  S  S  S  S  S  S  S  S  S  S  S  S  S  S  S  S  S
|----------------------------------------------18-20-22-24-22-18----------------------------|
|-------------------------------------18-20-22-------------------20-17-15-------------------|
|----------------------17-19----17-19-------------------------------------14-12-------------|
|-------------17-19-20-------20-------------------------------------------------14-12-------|
|-------17-20-------------------------------------------------------------------------13-10-|
|-18-20-------------------------------------------------------------------------------------|


  (A)                                 (C#m+5)
   PM---------------------------------------------------------------------|
   E     E     E     E     E     E     E     E     E     E     E           E
|--------------------------------------------------------------------------------------|
|--------------------------------------------------------------------------------------|
|--------------------------------------------------------------------------------------|
|--------8-----7-----8-----7-----------------8-----7-----8-----7-----------------------|
|--0-----------------------------0-----4-----------------------------------4-----------|
|--------------------------------------------------------------------------------------|
|
|  E     E     E     E     E     E     E     E     E     E     E           E
|--------------------------------------------------------------------------------------|
|-------11----10----11----10----------------11----10----11----10-----------------------|
|--------------------------------------------------------------------------------------|
|--7-----------------------------7----11----------------------------------11-----------|
|--------------------------------------------------------------------------------------|
|--------------------------------------------------------------------------------------|
|
|                                                              |---------7----------|
|  S  S  S  S  S  S  S  S  S  S  S  S  S  S  S  S  S  S  S  S  S  S  S  S     S  S  S
|----------------------------------------------------------------------17h===18h20h21--|
|-------------------------------15-14-------------18-17-------17h18h20-----------------|
|-------------------12-14-15-14-------14-15-19-18-------18-19--------------------------|
|-------12-11-15-14--------------------------------------------------------------------|
|-12-13--------------------------------------------------------------------------------|
|--------------------------------------------------------------------------------------|


  (Dm)                                                  (Em+5)
   PM---------------------------------------------------------------------------------------|
   E        E        E        E        E        E        E        E        E     E     E     E
|----------------------------------------------------------------------------------------------|
|----------------------------------------------------------------------------------------------|
|----------------------------------------------------------------------------------------------|
|-----------8--------7--------8--------7-------------------------10--------8----10-----8-------|
|--5--------------------------------------------5--------7-----------------------------------7-|
|----------------------------------------------------------------------------------------------|
|
|  E        E        E        E        E        E        E        E        E     E     E     E
|----------------------------------------------------------------------------------------------|
|----------------------------------------------------------------------------------------------|
|----------15-------14-------15-------14-------------------------17-------15----17----15-------|
|-12-------------------------------------------12-------14----------------------------------14-|
|----------------------------------------------------------------------------------------------|
|----------------------------------------------------------------------------------------------|
|
|  |--3--|  |--3--|  |--3--|  |--3--|  |--3--|  |--3--|  |--3--|  |--3--|
|  S  S  S  S  S  S  S  S  S  S  S  S  S  S  S  S  S  S  S  S  S  S  S  S  S  S  S  S  S  S  E
|-22-17----17-------17----------------------------------------------------20-------------------|
|-------18----18-15----18-15-18-15----18-15----15-------------------17-20----20-17-20-17-------|
|----------------------------------14-------14----14----17-------17----------------------17----|
|----------------------------------------------------15----14-17----------------------------14-|
|----------------------------------------------------------------------------------------------|
|----------------------------------------------------------------------------------------------|


  (C)                                 (F)
   PM-------------------------------------------------------------------
   E     E     E     E     E     E     E        E     E  E        E  E
|----------------------------------------------------------------------|
|----------------------------------------------------------------------|
|----------------------------------------------------------------------|
|-----------------------------------------------8-----7--8--------7----|
|-------12----10----12----10-----------8-----------------------------8-|
|--8-----------------------------8-------------------------------------|
|
|  E     E     E     E     E     E     E        E     E  E        E  E
|----------------------------------------------------------------------|
|----------------------------------------------11----10-11-------10----|
|-------14----12----14----12----------10----------------------------10-|
|-10----------------------------10-------------------------------------|
|----------------------------------------------------------------------|
|----------------------------------------------------------------------|
|
|                                                        |--3--|
|  S  S  S  S  S  S  S  S  S  S  S  S  T  T  S  S  S  E  S  S  S  E  E
|----------------------------15-17-18-17h18p17-------25----------------|
|-------------------15-17-18-17-18-20----------20-18-------------------|
|----------14-15-17-15-17-19-------------------------22-14-17-14-------|
|-14-15-17-15-17-19----------------------------------------------15----|
|-15-17-19----------------------------------------------------------12-|
|----------------------------------------------------------------------|


  (Bb)                                (Em7b5)
 -------------------------------------------------------------------|
   E     E     E     E     E     E     E     E  E        E        E E
|---------------------------------------------------------------------|
|---------------------------------------------------------------------|
|---------------------------------------------------------------------|
|---------------------------------------------------------------------|
|-------12----10----12----10----------------12-10-------12-------10---|
|--6-----------------------------6-----0----------------------------0-|
|
|  E     E     E     E     E     E     E     E  E        E        E E
|---------------------------------------------------------------------|
|-------10-----8----10-----8----------------10--8-------10--------8---|
|---------------------------------------------------------------------|
|--8-----------------------------8------------------------------------|
|--------------------------------------7----------------------------7-|
|---------------------------------------------------------------------|
|
|                                               |--3--|  |--3--|
|  S  S  S  S  S  S  S  S  S  S  S  S  S  S  E  S  S  S  S  S  S  Q
|-------------------------18-17-15-13-12-15---------------------------|
|-------------------------------------------15-15-13------------------|
|-------------15-14-12----19-17-15-14-12-------------15-14-12---------|
|----------------------15-------------------------------------15-14---|
|-13-12-10------------------------------------------------------------|
|----------13---------------------------------------------------------|


  (A)
   PM------------------------------------------------------------------------------|
   E        E        E        E        E        E        E     E  E     E     E     E
|----------------------------------------------------------------------------------------|
|----------------------------------------------------------------------------------------|
|----------------------------------------------------------------------------------------|
|----------------------------------------------------------------------------------------|
|--0--------8--------7--------8--------7-----------------0-----8--7-----8-----7----------|
|-----------------------------------------------0-----------------------------------0----|
|
|  E        E        E        E        E        E        E     E  E     E     E     E
|----------------------------------------------------------------------------------------|
|----------------------------------------------------------------------------------------|
|----------10--------9-------10--------9----------------------10--9----10-----9----------|
|--7-----------------------------------------------------7-------------------------------|
|-----------------------------------------------7-----------------------------------7----|
|----------------------------------------------------------------------------------------|
|
|  |--3--|  |--3--|  |--3--|  |--3--|  |--3--|  |--3--|
|  S  S  S  S  S  S  S  S  S  S  S  S  S  S  S  S  S  S  S  S  E  S  S  S  S  S  S  S  S
|-------------------------------------------------------------------------17----17-18-20-|
|----------------------------15-14----------15-18-17-15-14-15-17----18-20----20----------|
|-------12-15-14-12----12-15-------15----15----------------------18----------------------|
|----14-------------11----------------14-------------------------------------------------|
|-12-------------------------------------------------------------------------------------|
|----------------------------------------------------------------------------------------|


  (A)
   PM------------------------------------------------------------------------------------------------------------------|
   E     E                 E     E                 E     E                 E        E        E        E        E        E
|---------------------------------------------------------------------------------------------------------------------------------||
|---------------------------------------------------------------------------------------------------------------------------------||
|---------------------------------------------------------------------------------------------------------------------------------||
|--------8-----------------7-----8-----------------7--------------------------------8--------7--------8--------7------------------||
|--0-----------------------------------------------------------------------0------------------------------------------------------||
|--------------------------------------------------------0--------------------------------------------------------------0---------||
|
|  E     E                 E     E                 E     E                 E        E        E        E        E        E
|---------------------------------------------------------------------------------------------------------------------------------||
|-------11----------------10----11----------------10-------------------------------11-------10-------11-------10------------------||
|---------------------------------------------------------------------------------------------------------------------------------||
|--7-----------------------------------------------------------------------7------------------------------------------------------||
|--------------------------------------------------------7--------------------------------------------------------------7---------||
|---------------------------------------------------------------------------------------------------------------------------------||
|
|        |------6-------|        |------6-------|        |------6-------|  |--3--|  |--3--|  |--3--|  |--3--|  |--3--|  |--3--|
|  S  S  T  T  T  T  T  T  S  S  T  T  T  T  T  T  S  S  T  T  T  T  T  T  S  S  S  S  S  S  S  S  S  S  S  S  S  S  S  S  S  S
|-21-18-------------------21-18-------------------21-18-------------------17-15---------------------------------------------------||
|----------------20h22h23----------------20h22h23----------------20h22h23-------18-17-15-14---------------------------------------||
|-------18h19h21----------------18h19h21----------------18h19h21----------------------------15-14-12------------------------------||
|----------------------------------------------------------------------------------------------------15-14-12-11------------------||
|----------------------------------------------------------------------------------------------------------------13-12-10---------||
|-------------------------------------------------------------------------------------------------------------------------13-12---||


 Guitar Solo
  (Dm)               (Em+5)               (C)                  (F)
 12/8
   PM------------------------------------------------------------------------------
   E  E E   E   E  E  E   E E   E  E  E    E  E  E  E     E  E  E  E E   E   E  E
|---------------------------------------|-----------------------------------------|
|---------------------------------------|-----------------------------------------|
|---------------------------------------|-----------------------------------------|
|-----8-7---8---7--------10-8--10--8----|--------------------------8-7---8---7----|
|--5---------------5--7---------------7-|----12-10-12----10-----8---------------8-|
|---------------------------------------|--8-----------------8--------------------|
|
| Gtr V
|  ~~~~~~~~~~~~       ~~~~~~~~~~~~~        ~~                   ~~~~~~~~~~~~
|  Q.      +E   E  E  Q.       +Q     E    Q     E  E  A  E  E  Q.      +E   E  E
|-----------------13-12-------(12)------|-12----------12h13-12-13------(13)-15-17-|
|-15------(15)--------------------------|----------13-----------------------------|
|--------------14--------------------12-|-------12--------------------------------|
|---------------------------------------|-----------------------------------------|
|---------------------------------------|-----------------------------------------|
|---------------------------------------|-----------------------------------------|


  (Bb)                 (Em7b5)
 -------------------------------------------|
   E   E  E   E   E  E  E  E        E  E  E  E
|-----------------------------------------------|
|-----------------------------------------------|
|-----------------------------------------------|
|-----------------------------------------------|
|-----12-10--12--10-------12-------10-12-10-----|
|--6-----------------6--0--------------------0--|
|
|  ~~~~~~~~~~~~~~
|                          |--3--|
|  Q.        +Q      E  E  S  S  S  E  E  E  E
|-18--------(18)----17-18-17h18p17-15-----------|
|-------------------------------------18-17-15--|
|-----------------------------------------------|
|-----------------------------------------------|
|-----------------------------------------------|
|-----------------------------------------------|


  (A)               (C#m+5)             (Dm)               (Em+5)
   PM-----------------------------------------------------------------------------
   E  E E   E  E  E  E E  E   E   E E    E  E E   E   E  E  E   E E   E    E   E
|-------------------------------------|------------------------------------------|
|-------------------------------------|------------------------------------------|
|-------------------------------------|------------------------------------------|
|-----8-7---8--7-------8--7---8---7---|-----8-7---8---7--------10-8--10----8-----|
|--0--------------0--4--------------4-|--5---------------5--7------------------7-|
|-------------------------------------|------------------------------------------|
|
|  ~~~~~~~~~~~~           ~~~~~~~~~~~~~~~~~~~~~~~~~~~       ~~~~~~~~~~~~~
|  Q.      +Q     E  Q    E  +E   Q      Q.      +E   E  E  Q.       +E   +E   E
|-------------------------------------|-----------------17-15-------(15)-(15)\-3S|
|-17------(17)---15-14---15-(15)-17---|-15------(15)-----------------------------|
|-------------------------------------|--------------14--------------------------|
|-------------------------------------|------------------------------------------|
|-------------------------------------|------------------------------------------|
|-------------------------------------|------------------------------------------|


  (C)               (F)
 -----------------------------------|
   E  E  E  E  E  E  E     E E E  E  E
|---------------------------------------|
|---------------------------------------|
|---------------------------------------|
|--------------------------8-7-8--7-----|
|----12-10-12-10-----8---------------8--|
|--8--------------8---------------------|
|
|  ~~
|  Q     E  E  E  E  H            E  E
|-15----------20-18-17tr18-------18-20--|
|----------17---------------------------|
|-------17------------------------------|
|---------------------------------------|
|---------------------------------------|
|---------------------------------------|


  (Bb)                (Em7b5)
   PM----------------------------------------------
   E     E  E  E  E E  E      E  E   E    E    E
|-------------------------------------------------|
|-------------------------------------------------|
|-------------------------------------------------|
|-------------------------------------------------|
|-------12-10-12-10----------12-10--12---10-------|
|--6----------------6--0-----------------------0--|
|
|  ~~~~~
|  H.                  Q.           +E   +E   +E
|-20b22---------------22b24========(22)-(22)r(22)-|
|-------------------------------------------------|
|-------------------------------------------------|
|-------------------------------------------------|
|-------------------------------------------------|
|-------------------------------------------------|


  (A)
 -----------------------------------------------|
   E  E E   E  E   E    E       E    E    E   E E
|-------------------------------------------------|
|-------------------------------------------------|
|-------------------------------------------------|
|-------------------------------------------------|
|--0--8-7---8--7--------0-------8----7----8---7---|
|------------------0----------------------------0-|
|
|  ~~~~~~~~~~~~         ~~~~~~~~~~~~~~~~~~~~~~~~
|  Q.      +Q     +E    E      +E   +E   +E   Q
|-21------(21)---(21)\-17b18==(17)r(17)-(17)-15---|
|-------------------------------------------------|
|-------------------------------------------------|
|-------------------------------------------------|
|-------------------------------------------------|
|-------------------------------------------------|


  (A)
   PM------------------------------------------------------------------------------------------|
   E        E        E        E        E        E        E        E        E        E        E E
|-------------------------------------------------------------------------------------------------||
|-------------------------------------------------------------------------------------------------||
|-------------------------------------------------------------------------------------------------||
|-----------8--------7--------8--------7--------------------------8--------7--------8--------7----||
|--0-----------------------------------------------------0----------------------------------------||
|-----------------------------------------------0----------------------------------------------0--||
|
|                                                                                            ~~
|  |--3--|  |--3--|  |--3--|  |--3--|  |--3--|  |--3--|  |--3--|  |--3--|  |--3--|  |--3--|
|  S  S  S  S  S  S  S  S  S  S  S  S  S  S  S  S  S  S  S  S  S  S  S  S  S  S  S  S  S  S  Q
|-18-17-15-18-17-15-------------------------------------------------------------------------------||
|-------------------18-17-15-18-17-14-17-15-14-17-15-14-------------------------------------------||
|-------------------------------------------------------15-14-12-15-14-12-------------------------||
|-------------------------------------------------------------------------15-14-12-15-14-12-11----||
|-------------------------------------------------------------------------------------------------||
|-------------------------------------------------------------------------------------------------||


  (Dm)           (Em+5)               (C)                  (F)
 6/4
   PM-------------------------------------------------------------------------
   E E E E  E  E  E  E   E   E E  E    E  E  E  E     E  E  E E   E  E  E  E
|-----------------------------------|----------------------------------------|
|-----------------------------------|----------------------------------------|
|-----------------------------------|----------------------------------------|
|----8-7-8--7-------10---8--10-8----|-------------------------8---7--8--7----|
|--5-----------5--7---------------7-|----12-10-12----10-----8--------------8-|
|-----------------------------------|--8-----------------8-------------------|
|
|  ~~             ~~~~~~~~~~           ~~                   ~~~~~~~~~
|  H        E  E  Q     +Q.       E    Q     E  E  A  E  E  Q    +Q     E  E
|-------------13-12----(12)---------|-12----------12h13-12-13---(13)---15-17-|
|-15--------------------------------|----------13----------------------------|
|----------14--------------------12-|-------12-------------------------------|
|-----------------------------------|----------------------------------------|
|-----------------------------------|----------------------------------------|
|-----------------------------------|----------------------------------------|
|
| Gtr III
|  ~~             ~~~~~~~~~~           ~~                   ~~~~~~~~~
|  H        E  E  Q     +Q.       E    Q     E  E  A  E  E  Q    +Q     E  E
|-------------17-15----(15)---------|-15----------15h17-15-17---(17)---18-20-|
|-18--------------------------------|----------17----------------------------|
|----------17--------------------15-|-------15-------------------------------|
|-----------------------------------|----------------------------------------|
|-----------------------------------|----------------------------------------|
|-----------------------------------|----------------------------------------|


  (Bb)                (Em7b5)
 ------------------------------------------|
   E  E  E  E   E   E  E  E        E  E  E  E
|----------------------------------------------|
|----------------------------------------------|
|----------------------------------------------|
|----------------------------------------------|
|----12-10-12--10--------12-------10-12-10-----|
|--6----------------6--0--------------------0--|
|
|  ~~~~~~~~~~~~~~~~
|                         |--3--|
|  H           +E   E  E  S  S  S  E  E  E  E
|-18----------(18)-17-18-17h18p17-15-----------|
|------------------------------------18-17-15--|
|----------------------------------------------|
|----------------------------------------------|
|----------------------------------------------|
|----------------------------------------------|
|
|  ~~~~~~~~~~~~~~~~
|                         |--3--|
|  H           +E   E  E  S  S  S  E  E  E  E
|-22----------(22)-20-22-20h22p20-18-----------|
|------------------------------------22-20-18--|
|----------------------------------------------|
|----------------------------------------------|
|----------------------------------------------|
|----------------------------------------------|


  (A)                  (C#m+5)          (Dm)           (Em+5)
   PM-------------------------------------------------------------------------
   E     E E E   E   E  E E  E E  E E    E E E E  E  E  E  E   E   E   E   E
|-------------------------------------|--------------------------------------|
|-------------------------------------|--------------------------------------|
|-------------------------------------|--------------------------------------|
|--------8-7-8---7--------8--7-8--7---|----8-7-8--7-------10---8--10---8-----|
|--0-----------------0--4-----------4-|--5-----------5--7------------------7-|
|-------------------------------------|--------------------------------------|
|
|                       ~~~~~~~~~~~~~~~~~~~             ~~~~~~~~~~
|  H            +E   E  Q    Q    Q      H        E  E  Q     +Q      +E   E
|-------------------------------------|-------------17-15----(15)----(15)\-3S|
|-17tr18-------(17)-15-14---15---17---|-15-----------------------------------|
|-------------------------------------|----------14--------------------------|
|-------------------------------------|--------------------------------------|
|-------------------------------------|--------------------------------------|
|-------------------------------------|--------------------------------------|
|
|                       ~~~~~~~          ~~             ~~~~~~~~~~
|  H            +E   E  Q    Q    Q      H        E  E  Q     +Q      +E   E
|-------------------------------------|-------------20-18----(18)----(18)\-3S|
|-20tr22-------(20)-18-17---18---20---|-18-----------------------------------|
|-------------------------------------|----------19--------------------------|
|-------------------------------------|--------------------------------------|
|-------------------------------------|--------------------------------------|
|-------------------------------------|--------------------------------------|


  (C)                  (F)
 --------------------------------------|
   E  E  E     E  E  E  E     E E E  E  E
|-----------------------------------------|
|-----------------------------------------|
|-----------------------------------------|
|-----------------------------8-7-8--7----|
|----12-10----12-10-----8---------------8-|
|--8-----------------8--------------------|
|
|  ~~
|  Q     E     E  E  E  H            E  E
|-15-------------20-18-17tr18-------18-20-|
|-------------17--------------------------|
|-------17--------------------------------|
|-----------------------------------------|
|-----------------------------------------|
|-----------------------------------------|
|
|  ~~
|  Q     S  S  E  E  E  H            E  E
|-20-------------24-22-20tr22-------22-24-|
|-------------20--------------------------|
|-------17s21-----------------------------|
|-----------------------------------------|
|-----------------------------------------|
|-----------------------------------------|


  (Bb)                (Em7b5)
   PM-----------------------------------------------
   E     E  E  E  E E  E     E  E  E       E    E
|--------------------------------------------------|
|--------------------------------------------------|
|--------------------------------------------------|
|--------------------------------------------------|
|-------12-10-12-10---------12-10-12------10-------|
|--6----------------6--0------------------------0--|
|
|  ~~~~~
|  H.                  Q.          E      +E   +E
|-20b22---------------22b24-------22b24==(22)r(22)-|
|--------------------------------------------------|
|--------------------------------------------------|
|--------------------------------------------------|
|--------------------------------------------------|
|--------------------------------------------------|
|
|  ~~~~~
|  H.                  Q.          E      +E   +E
|-24b25---------------24b27-------24b27==(24)r(24)-|
|--------------------------------------------------|
|--------------------------------------------------|
|--------------------------------------------------|
|--------------------------------------------------|
|--------------------------------------------------|


  (A)
 -------------------------------------------|
   E E E E   E    E    E       E    E  E  E E
|---------------------------------------------|
|---------------------------------------------|
|---------------------------------------------|
|---------------------------------------------|
|--0-8-7-8---7---------0-------8----7--8--7---|
|-----------------0-------------------------0-|
|
|  ~~~~~~~~~~~~~       ~~~~~~~~~~~~~~~~~~~~~
|  H        +E   +E    E      +E   +Q     Q
|-21-------(21)-(21)\-17b18==(17)r(17)---15---|
|---------------------------------------------|
|---------------------------------------------|
|---------------------------------------------|
|---------------------------------------------|
|---------------------------------------------|
|
|  ~~~~~~~~~~~~~       ~~~~~~~~~~~~~~~~~~~~~
|  H        +E   +E    E      +E   +Q     Q
|-24-------(24)-(24)\-21b22==(21)r(21)---18---|
|---------------------------------------------|
|---------------------------------------------|
|---------------------------------------------|
|---------------------------------------------|
|---------------------------------------------|


  (A)
   PM------------------------------------------------------------------------------------------|
   E        E        E        E        E        E        E        E        E        E        E E
|-------------------------------------------------------------------------------------------------||
|-------------------------------------------------------------------------------------------------||
|-------------------------------------------------------------------------------------------------||
|-----------8--------7--------8--------7--------------------------8--------7--------8--------7----||
|--0-----------------------------------------------------0----------------------------------------||
|-----------------------------------------------0----------------------------------------------0--||
|
|                                                                                            ~~
|  |--3--|  |--3--|  |--3--|  |--3--|  |--3--|  |--3--|  |--3--|  |--3--|  |--3--|  |--3--|
|  S  S  S  S  S  S  S  S  S  S  S  S  S  S  S  S  S  S  S  S  S  S  S  S  S  S  S  S  S  S  Q
|-18-17-15-18-17-15-------------------------------------------------------------------------------||
|-------------------18-17-15-18-17-14-17-15-14-17-15-14-------------------------------------------||
|-------------------------------------------------------15-14-12-15-14-12-------------------------||
|-------------------------------------------------------------------------15-14-12-15-14-12-11----||
|-------------------------------------------------------------------------------------------------||
|-------------------------------------------------------------------------------------------------||
|
|                                                                                            ~~
|  |--3--|  |--3--|  |--3--|  |--3--|  |--3--|  |--3--|  |--3--|  |--3--|  |--3--|  |--3--|
|  S  S  S  S  S  S  S  S  S  S  S  S  S  S  S  S  S  S  S  S  S  S  S  S  S  S  S  S  S  S  Q
|-22-21-18-22-21-18-------------------------------------------------------------------------------||
|-------------------22-20-18-22-20-18-20-18-17-20-18-17-------------------------------------------||
|-------------------------------------------------------19-18-15-19-18-15-------------------------||
|-------------------------------------------------------------------------19-17-15-19-17-15-14----||
|-------------------------------------------------------------------------------------------------||
|-------------------------------------------------------------------------------------------------||


 Outro
  D5                                   Csus2
 5/4
  Gtrs II, III
    H.                  +H               H.                  +H
|------------------------------------|---3-------------------(3)----------|
|---3-------------------(3)----------|---3-------------------(3)----------|
|---2-------------------(2)----------|---5-------------------(5)----------|
|---0-------------------(0)----------|---5-------------------(5)----------|
|---0-------------------(0)----------|---3-------------------(3)----------|
|------------------------------------|------------------------------------|
|
| Gtr IV
|   E   E   E   Q    E   E    E   Q      E   E   E   Q    E   E    E   Q
|------17------18-------17-------18--|------18------17-------18-------17--|
|------------------------------------|------------------------------------|
|------14------15-------14-------15--|------15------14-------15-------14--|
|-(12)----(12)-----(12)-----(12)-----|-(14)----(14)-----(14)-----(14)-----|
|------------------------------------|------------------------------------|
|------------------------------------|------------------------------------|


  D5                                   Csus2
                                                                       PM|
    H.                  +H               H.                  +Q        E E
|------------------------------------|---3-------------------(3)-------------|
|---3-------------------(3)----------|---3-------------------(3)-------------|
|---2-------------------(2)----------|---5-------------------(5)-------------|
|---0-------------------(0)----------|---5-------------------(5)-------5-5---|
|---0-------------------(0)----------|---3-------------------(3)-------3-3---|
|------------------------------------|---------------------------------------|
|
|   E   E   E   Q    E   E    E   Q      E   E   E   Q    E   E    E   Q
|------17------18-------17-------18--|------18------17-------18-------17-----|
|------------------------------------|---------------------------------------|
|------14------15-------14-------15--|------15------14-------15-------14-----|
|-(12)----(12)-----(12)-----(12)-----|-(14)----(14)-----(14)-----(14)--------|
|------------------------------------|---------------------------------------|
|------------------------------------|---------------------------------------|


  Bbsus2                               A5
                                                                       PM|
    H.                  +H               H.                  +Q        E E
|---1-------------------(1)----------|-------------------------------------|
|---1-------------------(1)----------|-------------------------------------|
|---3-------------------(3)----------|---2-------------------(2)-----------|
|---3-------------------(3)----------|---2-------------------(2)-------2-2-|
|---1-------------------(1)----------|---0-------------------(0)-------0-0-|
|------------------------------------|-------------------------------------|
|
|   E   E   E   Q    E   E    E   Q      E   E   E   Q    E   E    E   Q
|------17------15-------17-------15--|------15------13-------15-------13---|
|------------------------------------|-------------------------------------|
|------14------12-------14-------12--|------12------10-------12-------10---|
|-(12)----(12)-----(12)-----(12)-----|-(10)----(10)-----(10)-----(10)------|
|------------------------------------|-------------------------------------|
|------------------------------------|-------------------------------------|


  G5                 F5                 E5
 6/8
   H.                 H.                  H.
|------------------|------------------|--------------------|
|------------------|------------------|--------------------|
|------------------|------------------|--------------------|
|--5---------------|--3---------------|---2----------------|
|--5---------------|--3---------------|---2----------------|
|--3---------------|--1---------------|---0----------------|
|
|  E   E  E   Q.      E   E  E   Q.       E   E   E   Q.
|-----13-----12----|-----12-----10----|--------------------|
|------------------|------------------|------15------14----|
|-----10------9----|------9------7----|--------------------|
|-(8)----(8)-------|-(7)----(7)-------|------12------11----|
|------------------|------------------|-(10)----(10)-------|
|------------------|------------------|--------------------|


               H.=H
  A5   Bb5     A5   Bb5     A      Bb      A
       PM--|        PM--|          PM--|         PM-|
  Q.   E E E   Q.   E E E     Q.   E E E     Q   q  q
|------------|------------|--------------|-------------|
|------------|------------|---2----3-3-3-|---2---------|
|-2----3-3-3-|-2----3-3-3-|---2----3-3-3-|---2---2--2--|
|-2----3-3-3-|-2----3-3-3-|---2----3-3-3-|---2---2--2--|
|-0----1-1-1-|-0----1-1-1-|---0----1-1-1-|---0---0--0--|
|------------|------------|--------------|-------------|
|
| W            W              H.            +H.
|------------|------------|-/29----------|-(29)--------|
|------------|------------|--------------|-------------|
|------------|------------|-/26----------|-(26)--------|
|------------|------------|--------------|-------------|
|------------|------------|--------------|-------------|
|------------|------------|--------------|-------------|


  Q=90
  D5
  Gtrs II, III, IV
                        >
  H.        +H.        +H.        +H.
|---------|----------|----------|--------||
|-3-------|-(3)------|-(3)------|-(3)----||
|-2-------|-(2)------|-(2)------|-(2)----||
|-0-------|-(0)------|-(0)------|-(0)----||
|-0-------|-(0)------|-(0)------|-(0)----||
|---------|----------|----------|--------||


  Q=118
  D5
 5/4
   >
  +H.           +H          +H.           +H
|-------------------------|-------------------------|
|-(3)-----------(3)-------|-(3)-----------(3)-------|
|-(2)-----------(2)-------|-(2)-----------(2)-------|
|-(0)-----------(0)-------|-(0)-----------(0)-------|
|-(0)-----------(0)-------|-(0)-----------(0)-------|
|-------------------------|-------------------------|
|
| Gtr I
|  E  E E E E E  E  E E E    E  E E E E E  E  E E E
|-------------------------|-------------------------|
|-------------------------|-------------------------|
|-----3-2-3-2----3----2-3-|-----3-2-3-2----3----2-3-|
|--0----------0-----0-----|-------------------------|
|-------------------------|--3----------3-----3-----|
|-------------------------|-------------------------|


   >
  +H.           +H          +H.           +H
|-------------------------|---------------------------|
|-(3)-----------(3)-------|-(3)-----------(3)---------|
|-(2)-----------(2)-------|-(2)-----------(2)---------|
|-(0)-----------(0)-------|-(0)-----------(0)---------|
|-(0)-----------(0)-------|-(0)-----------(0)---------|
|-------------------------|---------------------------|
|
|  E  E E E E E  E  E E E    E  E E E E E  E  E E E
|-------------------------|---------------------------|
|-------------------------|---------------------------|
|-----3-2-3-2----3----2-3-|-----3-2-3-2----3----2-3---|
|--0----------0-----0-----|---------------------------|
|-------------------------|--3----------3-----3-------|
|-------------------------|---------------------------|


    (D)                   (C)
    Gtr I
    E E E E E E E E E E   E E E E E E E E E E     W
||----------------------|----------------------||------*|
||o---------------------|---------------------o||------*|
||----3-2-3-2---3---2-3-|---3-2-3-2---3---2-3--||------*|
||--0---------0---0-----|----------------------||------*|
||o---------------------|-3---------3---3-----o||------*|
||----------------------|----------------------||------*|




--------------------------------------------------------------------------------


Duration Legend
---------------
W - whole; H - half; Q - quarter; E - 8th; S - 16th; T - 32nd; X - 64th; a - acciaccatura
+ - note tied to previous; . - note dotted; .. - note double dotted
Uncapitalized letters represent notes that are staccato (1/2 duration)
Irregular groupings are notated above the duration line
Duration letters will always appear directly above the note/fret number it represents the
duration for.  Duration letters with no fret number below them represent rests.  Multi-
bar rests are notated in the form Wxn, where n is the number of bars to rest for.  Low
melody durations appear below the staff

Tablature Legend
----------------
 h   - hammer-on
 p   - pull-off
 b   - bend
 pb  - pre-bend
 r   - bend release (if no number after the r, then release immediately)
 /\  - slide into or out of (from/to "nowhere")
 s   - legato slide
 S   - shift slide
 - natural harmonic
[n]  - artificial harmonic
n(n) - tapped harmonic
 ~   - vibrato
 tr  - trill
 T   - tap
 TP  - trem. picking
 PM  - palm muting
\n/  - tremolo bar dip; n = amount to dip
 \n  - tremolo bar down
 n/  - tremolo bar up
/n\  - tremolo bar inverted dip
 =   - hold bend; also acts as connecting device for hammers/pulls
 <> - volume swell (louder/softer)
 x   - on rhythm slash represents muted slash
 o   - on rhythm slash represents single note slash

Misc Legend
-----------
 |  - bar
||  - double bar
||o - repeat start
o|| - repeat end
*|  - double bar (ending)
 :  - bar (freetime)
 $  - Segno
 &  - Coda
Tempo markers -  = BPM(8/16=s8/s16), where s8 = swing 8ths, s16 = swing 16ths

--------------------------------------------------------------------------------
** Generated using Power Tab Editor by Brad Larsen: The Official Power Tab Web Site
Comments