Dream Theater - Stream Of Consciousness Chords & Tabs

 

Stream Of Consciousness Chords & Tabs

Dream Theater Chords & Tabs

Version: 2 Type: Bass Tab 0 ratings
1 star 2 stars 3 stars 4 stars 5 stars
comments

Stream Of Consciousness Bass Tab

Dream Theater - Stream of Consciousness

From the album Train of Thought

Originally tabs by : Kevin Mc Donald(Metallika5@hotmail.com)
Transpose to standart tuning : Maxime D. Cliche (cream_hill@hotmail.com)


The Timing isn't tabbed but just listen to the cd to get it.


(0:20)
G--------------------------------------------------------|
D--------------------------------------------------------|
A--------------------------------------------------------|
E-------------------------/5----4---2--0------4----------|
B-2----0----2----0-------------------------4-------------|

(0:39)
G---------------------------------------------------------|
D---------------------------------------------------------|
A---------------------------------------------------------|
E----------------------------------------------5555555555-|
B-2222222222-0000000000-222222222-00000000----------------|

---------------------------|
---------------------------|
---------------------------|X2
-4444444---222--000-----44-|
--------------------44-----|

(1:17)
G----------------------------------|
D------------6-4-------------------|
A-4444444/6------654--22222222-----|X2
E----------------------------------|
B----------------------------------|

(1:27)
G-------------------------------------------------------|
D-------------------------------------------------------|
A-------------------------------------------------------|
E--444444-5555555-777777777-------------44444444-555555-|
B---------------------------77777777--------------------|

-----------------------------|
-----------------------------|
-----------------------------|
-0000000-----------444444444-|
---------444444444-----------|

(1:44)
G---------------------------------------------------------|
D---------------------------------------------------------|
A---------------------------------------------------------|
E----------------------------------------------5555555555-|
B-2222222222-0000000000-222222222-00000000----------------|

---------------------------|
---------------------------|
---------------------------|X1
-4444444---222--000-----44-|
---------------------44----|

(2:03)
G-------------------------------------------------|
D-------------------------------------------------|
A-----------------------------3---4---------------|
E-----0----2---4---------0-------------------0----|
B-4------------------4------------------4---------|

-----------------------------|
-----------------/4----------|
---------------------6-7--4--|
2----4-------1---------------|
----------4------------------|

(2:18)
G--------------------------------------------------------------------------|
D----------------------1-2-1--------------------------1-1/---44------------|
A---------------1-3--4-------4--0--------------------------------66-77-4---|
E--------/5-4-4-------------------4--2-0---------/5-4----------------------|
B--4-5-----------------------------------4---5-----------------------------|

------------------------------------------------------------------------|
----------------------1-2-1----------------------------------1-2--------|
----------------1-3-4-------4-0------------------------1-3-4-----4------|
--------/5-4--4-----------------4--2-0---------/5-4--4------------------|
-4-5-----------------------------------4---5----------------------------|


(2:48)
G---------------------------------------------------|
D--------------------------6------------------------|
A--------------0--3--4--6-----------------0--2--4---|
E-----0--2--4-------------------0--2---4------------|
B--4-------------------------4----------------------|

(3:04)
i've tabbed the timing for this part only.
G----------------------------------1---------------------------|
D--------------------------1-2-3-4-----------------------------|
A------------------------4-------------------------------------|
E--4--444-4444-44-444-4---------------4-444-4444----44--444--4-|
B--------------------------------------------------------------|

--------------1-|
------1-2-3-4---|
----4-----------|
----------------|
----------------|

(3:19)                               (3:27)  end part x2
G---------------------------------------------------------------------|
D------------------------------------66-4-6-7---0-1---1-2---1-4-2-1---|
A---------------------------------------------4-----4-----4---------4-|
E--4-4-4-4-4-4-4-4-4-4-4-4-4-4-4-4------------------------------------|
B---------------------------------------------------------------------|

(3:34) to (3:50) i could't get this bit.
i think these are the root notes, played
four times.
G---------------|
D---------------|
A---------------|
E---4--2--------|
B---------4--1--|


(3:50,guitar solo)The timing is hard here but the riff is right.
G--------------------------------|
D--------------------------------|
A--------------------------------| (played 4 times, play
E-44---22-00-0-------------------|   open Eb the last time round)
B----4---------44-22-00-00-0-444-|


(4:12)
G--------------------1-2-1------------------------------22----11-----|
D--------------1-2-4-------4-2-1---------------------------44----2---|
A-------/4-3-4-------------------4--2-0-------/4-3--4-4--------------|
E-4-5-----------------------------------4-5--------------------------|
B--------------------------------------------------------------------|

----------------------1-2-1--------------------------------------|
----------------1-2-4-------4--2-1-----------------------1-2-1---|
-------/4--3--4--------------------4--2-0------/4-3---44-------4-|
-4-5--------------------------------------4-5--------------------|
-----------------------------------------------------------------|


(4:28)
G--------------------------------|
D--------------------------------|
A--------------------------------| (played 4 times, play
E--44---22-00--------------------|   open Eb the last time round)
B-----4-------444-22-00-00-0-444-|

(4:50)Same as the 4:12 riff only the very end is slightly different.
G--------------------1-2-1------------------------------22----11-----|
D--------------1-2-4-------4-2-1---------------------------44----2---|
A-------/4-3-4-------------------4--2-0-------/4-3--4-4--------------|
E-4-5-----------------------------------4-5--------------------------|
B--------------------------------------------------------------------|

----------------------1-2-1--------------------------------------------|
----------------1-2-4-------4--2-1-----------------------1H2-1-2-1-----|
-------/4--3--4--------------------4--2-0------/4-3---44-----------4-2-|
-4-5--------------------------------------4-5--------------------------|
-----------------------------------------------------------------------|

(5:06)
G-----------------------------------------------------------------------|
D-----------------------------------------------------------------------|
A-----------------------------------------------------------------------|
E--4-4-44\--0-0-00/--4-4-44\--0-0-00/--7-7-77\--3-3-33/--7-7-77\-3-3-33-|
B-----------------------------------------------------------------------|

[ Tab from: http://www.guitartabs.cc/tabs/d/dream_theater/stream_of_consciousness_btab_ver_2.html ]
(5:22)Distorted
G--------------------------------------------------------------------|
D--------------------------------------------------------------------|
A--------------------------------------------------3-----------1-2-3-|
E------0-2-3--------0-2-3-------0-2-3-------0-2-3-------0-2-3--------|
B--1-3---------1-3---------1-3---------1-3------------4--------------|


--------------------------------------------------------------------------|
---------------------------------------------------------------1----------|
----------3----------1-2-3-----------3-----------1-2-3----------------1-2-|
---0-2-3------0-2-3-----------0-2-3-------0-2-3-----------0-2----22-3-----|
-4----------4---------------4-----------4---------------4-----------------|

--------------------------------------------------------------------------|
-------------------------------------------1-2-1--------------------------|
--------------2-----0-1-2-4--------0-1-2-4-------4-2--1-------------------|
---------22-3-----2------------1-2-----------------------4----------------|
-2-3-4-----------------------4--------------------------------------------|


(6:04)Clean
G-----------------------------------------------------------------------|
D-----------------------------------------------------------------------|
A-----------------------------------------------------------------------|
E--4-4-44\--0-0-00/--4-4-44\--0-0-00/--7-7-77\--3-3-33/--7-7-77\-3-3-33-|
B-----------------------------------------------------------------------|


(6:23)Distorted
G-----------------------------------------------|
D-----------------------------------------------|
A-----------------------------------------------|
E-----0-2-3------0-2-3------0-2-3------0-2-3----|
B-1-3-------1--3--------1-3--------1-3----------|

---------------------|
---------------------|
3------------1-2-3---|
----0-2-3------------|
--4------------------|

--------------------------------------------------------|
-------1------------------------------------------------|
--------------0-1--------------0----0-1-2-4-------0-1-2-|
--0-2----2-3---------------2-3----2-----------1-2-------|
4------------------2-3-4--------------------4-----------|

--------------------|
--1-2-1-------------|
4-------4-2--1------|
------------------4-|
--------------------|

(6:54) Clean
G-------------------------------------------------------------------------|
D-------------------------------------------------------------------------|
A----------------------------------------------------------3-3-33---------|
E-4-4-44-0-0-00-4-4-44-0-0-00-7-7-77-3-3-33-7-7-77-3-3-33---------4-4-44--|
B-------------------------------------------------------------------------|


-------------------------------------------------|
-------------------------------------------------|
-3-3-33---------6-6-66----------6-6-66-----------|
--------4-4-44---------7-7-77-------------7-7-77-|
-------------------------------------------------|


(7:30)Distorted
G------13------14-------13-------14--------14-----13-------14------13-|
D--11------11------11-------11---------9-------9-------9-------9------|
A---------------------------------------------------------------------| X4
E---------------------------------------------------------------------|
B---------------------------------------------------------------------|

(7:51)
G--------------------------------------------|
D--------------------------------------------|
A--------------------------------------------|
E--------------------------------------------|
B-2222222222-0000000000-222222222-00000000---|

----------------------------------------|
----------------------------------------|
----------------------------------------| X1
--5555555555--4444444---222--000-----44-|
----------------------------------44----|


(8:10)
G----------------------------------|
D------------6-4-------------------|
A-4444444/6------654--22222222-----|X2
E----------------------------------|
B----------------------------------|

(8:20)
G-------------------------------------------------------|
D-------------------------------------------------------|
A-------------------------------------------------------|
E--444444-5555555-777777777-------------44444444-555555-|
B---------------------------77777777--------------------|

-----------------------------|
-----------------------------|
-----------------------------|
0000000------------444444444-|
--------444444444------------|


(8:37)
G-------------------------------------------------------------------------|
D-------------------------------------------------------------------------|
A--44444444--6666666666-222222222--777777777------------------------3333--|
E---------------------------------------------55555--22222--44444---------|
B-------------------------------------------------------------------------|

--------------------------------------------------------------------------|
--------------------------------------------------------------------------|
-44444-666666/--12-12-12-12\--777777777-----------------------------------|
-------------------------------------------55555---222222--44444444444444-|
--------------------------------------------------------------------------|

(9:02)Same Riff as 8:37 only a little faster


(9:54) Bass plays the same as keyboards(i think!) FAST!!
G--------14-13-14-13---------16-14-16-14------13-11-13-11------|
D---11----------------11-13----------------9----------------9--|
A--------------------------------------------------------------|
E--------------------------------------------------------------|
B--------------------------------------------------------------|

-----14-13-14-13----------13-11-13-11----------13-11-13-11--------|
--14---------------14-11----------------11--9---------------------|
------------------------------------------------------------------|
------------------------------------------------------------------|
------------------------------------------------------------------|

------------------------------------------------------------------|
-------14-13-14-13---------14-13-14-13----------------------------|
--9-14--------------11--14----------------------------------------|
------------------------------------------------------------------|
------------------------------------------------------------------|

(10:05)
-----14-13-14-13-------16-14-16-14-------13-11-13-11--------14-13-14-13-|
-11--------------11-13-------------13--9---------------9-14-------------|
------------------------------------------------------------------------|
------------------------------------------------------------------------|
------------------------------------------------------------------------|

--------13-11-13-11--------13-11-13-11------9-8--9-8-------9-8--9-8--|
-14-11--------------11--9----------------9-------------9-------------|
---------------------------------------------------------------------|
---------------------------------------------------------------------|
---------------------------------------------------------------------|

-----14-13-14-13-------14-13-14-13------------------------|
--14-------------11-14---------------14-------------------|
----------------------------------------------------------|
----------------------------------------------------------|
----------------------------------------2~---0~---2~--0~--|

-----------------------------|
-----------------------------|
-----------------------------|
5-4-2-0---4-4-4-4-4-4-4-4----|
--------4-----------------2~-|


H:hammer on
~:let ring
/: Slide up
\: Slide Down
Comments