Dream Theater - Strange Deja Vu Chords & Tabs

 

Strange Deja Vu Chords & Tabs

Dream Theater Chords & Tabs

Version: 2 Type: Bass Tab 0 ratings
1 star 2 stars 3 stars 4 stars 5 stars
comments

Strange Deja Vu Bass Tab

   
                            SCENE 3: STRANGE DEJA VU
                          As recorded by DREAM THEATER

Music by DREAM THEATER
Transcribed by Joe Britton - Larrylaffer_uk@yahoo.co.uk

Gtr I (B E A D G C) 

  Q.=138                                           Q=118
 12/8                                               2/4
  Gtr I
  E E E E E E E E E E E E   E E E Q.   E E E E E E   S S S S S S S S
|-------------------------|------------------------|--------------------|
|-------------------------|------------------------|--------------------|
|-------------------------|------------------------|---6-------7--------|
|-------------------------|------------------------|-----5-------6------|
|-4-4-4-4-----4-4-4-4-----|-4-4-4------4-4-4-4---0-|-4-----4-5-----5----|
|-------------------------|------------------------|--------------------|


   4/4
    S S S S E S S S S E S S S S
||------------------------------|
||o-----------------------------|
||------------------------------|
||------------------------------|
||o-4-4-4-4---4-4-4-4---4-4-4---|
||------------------------------|


  E S S S S E H      S S S S E S S S S E S S S S
|------------------|-------------------------------|
|------------------|-------------------------------|
|------------------|-------------------------------|
|------------------|-------------------------------|
|---4-4-4-4--------|-4-4-4-4---4-4-4-4---4-4-4-----|
|------------------|-------------------------------|


  E S S S S S S S S S S S S S S
|-------------------------------|
|-------------------------------|
|-----------------6-------7-----|
|-------------------5-------6---|
|---4-4-4-4---0-4-----4-5-----5-|
|-------------------------------|


  S S S S E S S S S E S S S S   E S S S S E H
|-----------------------------|------------------|
|-----------------------------|------------------|
|-----------------------------|------------------|
|-----------------------------|------------------|
|-1-1-1-1---1-1-1-1---1-1-1---|---1-1-1-1--------|
|-----------------------------|------------------|


  S S S S E S S S S E S S S S   E S S S S S S S S S S S S S S
|-----------------------------|--------------------------------||
|-----------------------------|-------------------------------o||
|-----------------------------|-----------------3-------4------||
|-----------------------------|-------------------2-------3----||
|-1-1-1-1---1-1-1-1---1-1-1---|---1-1-1-1---0-1-----1-2-----2-o||
|-----------------------------|--------------------------------||


 4/4
   S S S S S S E +S  S S S E. S
|--------------------------------|
|--------------------------------|
|--------------------------6-----|
|--------------------------------|
|--4-----5---5-4-(4)-4-0-4----4--|
|----6-7-------------------------|


 3/4                       4/4
  S S E +S  S S S S S S S   S S S S S S E +S  S S S E. S
|-------------------------|------------------------------|
|-------------------------|------------------------------|
|-----4-(4)---------------|-------------------------6----|
|-----------------6-7-6-4-|------------------------------|
|---4-------4---4---------|-4-----5---5-4-(4)-4-0-4----4-|
|-------------------------|---6-7------------------------|


 3/4
  S S E +S  S S S S S S S
|----------------------------|
|----------------------------|
|-----4-(4)------------------|
|-----------------4-6-4-3----|
|---4-------4---4------------|
|----------------------------|


 4/4                            3/4
  S S S S S S E +S  S S S E. S   S S E +S  S S S S S S S
|------------------------------|-------------------------|
|------------------------------|-------------------------|
|-------------------------4----|-----2-(2)---------------|
|-------0----------------------|-----------------6-7-6-4-|
|-0-2-4-----4-2-(2)-2-0-2----2-|---2-------2---2---------|
|------------------------------|-------------------------|


 4/4
  S S S S S S E +S  S S S E. S
|-------------------------------|
|-------------------------------|
|-------------------------4-----|
|-2-0---0-----------------------|
|-----4-----4-2-(2)-2-0-2----2--|
|-------------------------------|


 6/4
  S S E +S  S S S S S S S S S S S S S E   Q
|---------------------------------------------|
|---------------------------------------------|
|-----2-(2)-------6-7-6-4---4-----------------|
|-------------------------7---6---4-4---------|
|---2-------2---2---------------7-------/14\--|
|---------------------------------------------|


 4/4
  q  q  q  q    q  q  E S S S S S S   q  q  q  q
|-------------|---------------------|-------------|
|-------------|---------------------|-------------|
|-------------|---------------------|-------------|
|-------------|---------------------|-------------|
|-4--4--4--4--|-4--4--4-2-2-4-4-2-2-|-4--4--4--4--|
|-------------|---------------------|-------------|


  q  q  E S S S S S S    Q  Q  Q  E E   Q  Q  E S S S S S S
|---------------------|---------------|----------------------|
|---------------------|---------------|----------------------|
|---------------------|---------------|----------------------|
|---------------------|-/8--8--8--8-6-|-8--8--8-6-6-8-8-6-6--|
|-4--4--4-2-2-4-4-2-2-|---------------|----------------------|
|---------------------|---------------|----------------------|


  Q  Q  Q  E E   Q  Q  E S S S S S S   S S S S S S S S S S S S S S S S
|--------------|---------------------|-----------------------------------|
|--------------|---------------------|-----------------------------------|
|--------------|---------------------|-----------------------------------|
|-8--8--8--8-6-|-8--8--8-6-6-8-8-6-6-|-----------------------------------|
|--------------|---------------------|-4-4-4-4-4-4-4-4-4-4-4-4-4-4-4-4---|
|--------------|---------------------|-----------------------------------|


  S S S S S S S S S S S S S S S S   S S S S S S S S S S S S S S S S
|---------------------------------|---------------------------------|
|---------------------------------|---------------------------------|
|---------------------------------|---------------------------------|
|---------------------------------|---------------------------------|
|-4-4-4-4-4-4-4-4-4-4-4-4-4-4-4-4-|-4-4-4-4-4-4-4-4-4-4-4-4-4-4-4-4-|
|---------------------------------|---------------------------------|


  S S S S S S S S S S S S S S S S    S S S S S S S S S S S S S S S S
|----------------------------------|---------------------------------|
|----------------------------------|---------------------------------|
|----------------------------------|---------------------------------|
|----------------------------------|---------------------------------|
|-4-4-4-4-4-4-4-4-4-4-4-4-4-4-4-4\-|-1-1-1-1-1-1-1-1-1-1-1-1-1-1-1-1-|
|----------------------------------|---------------------------------|


  S S S S S S S S S S S S S S S S   S S S S S S S S S S S S S S S S
|---------------------------------|---------------------------------|
|---------------------------------|---------------------------------|
|---------------------------------|---------------------------------|
|---------------------------------|---------------------------------|
|-1-1-1-1-1-1-1-1-1-1-1-1-1-1-1-1-|-1-1-1-1-1-1-1-1-1-1-1-1-1-1-1-1-|
|---------------------------------|---------------------------------|


  S S S S S S S S S S S S S S S S   S S S S S S S S S S S S S S S S
|---------------------------------|---------------------------------|
|---------------------------------|---------------------------------|
|---------------------------------|---------------------------------|
|---------------------------------|-2-2-2-2-2-2-2-2-2-2-2-2-2-2-2-2-|
|-1-1-1-1-1-1-1-1-1-1-1-1-1-1-1-1-|---------------------------------|
|---------------------------------|---------------------------------|


  S S S S S S S S S S S S S S S S   S S S S S S S S S S S S S S S S
|---------------------------------|---------------------------------|
|---------------------------------|---------------------------------|
|---------------------------------|---------------------------------|
|-2-2-2-2-2-2-2-2-2-2-2-2-2-2-2-2-|-4-4-4-4-4-4-4-4-4-4-4-4-4-4-4-4-|
|---------------------------------|---------------------------------|
|---------------------------------|---------------------------------|


  S S S S S S S S S S S S S S S S   S S S S S S E +S  S S S E. S
|---------------------------------|------------------------------|
|---------------------------------|------------------------------|
|---------------------------------|-------------------------6----|
|-4-4-4-4-4-4-4-4-4-4-4-4-4-4-4-4-|------------------------------|
|---------------------------------|-4-----5---5-4-(4)-4-0-4----4-|
|---------------------------------|---6-7------------------------|


 3/4
  S S E +S  S S S S S S S
|-------------------------|
|-------------------------|
|-----4-(4)---------------|
|-----------------6-7-6-4-|
|---4-------4---4---------|
|-------------------------|


 4/4                            3/4
  S S S S S S E +S  S S S E. S   S S E +S  S S S S S S S
|------------------------------|--------------------------|
|------------------------------|--------------------------|
|-------------------------6----|-----4-(4)----------------|
|------------------------------|-----------------4-6-4-3--|
|-4-----5---5-4-(4)-4-0-4----4-|---4-------4---4----------|
|---6-7------------------------|--------------------------|


 4/4                            3/4
  S S S S S S E +S  S S S E. S   S S E +S  S S S S S S S
|------------------------------|-------------------------|
|------------------------------|-------------------------|
|-------------------------4----|-----2-(2)---------------|
|-------0----------------------|-----------------6-7-6-4-|
|-0-2-4-----4-2-(2)-2-0-2----2-|---2-------2---2---------|
|------------------------------|-------------------------|


 4/4
  S S S S S S E +S  S S S E. S
|-------------------------------|
|-------------------------------|
|-------------------------4-----|
|-2-0---0-----------------------|
|-----4-----4-2-(2)-2-0-2----2--|
|-------------------------------|


  S S E +S  S S S S S S S S S S S
|---------------------------------|
|---------------------------------|
|-----2-(2)-------6-7-6-4---4-----|
|-------------------------7---6---|
|---2-------2---2---------------7-|
|---------------------------------|


  E. S +S  S E +E   S  S S  E.   E. S +S  S E +H
|------------------------------|---------------------|
|------------------------------|---------------------|
|------------------------9h11--|---------------------|
|-4--4-(4)-4-4-(4)-/9h11-------|-0--0-(0)-0-0-(0)----|
|------------------------------|---------------------|
|------------------------------|---------------------|


                               Q.=144
                                12/8
                            ~~~
  E. S +S  S E +E   S  S S  E.   Q.   Q.   Q.    Q.
|------------------------------|----------------------|
|------------------------9-----|----------------------|
|-------------------9-11---11--|----------------------|
|------------------------------|----------------/6----|
|-4--4-(4)-4-4-(4)/------------|-2----4----5----------|
|------------------------------|----------------------|


  Q=118
 4/4
                            ~~~
  E. S +S  S E +E   S  S S  E.
|---------------------------------|
|---------------------------------|
|------------------------9h11-----|
|-4--4-(4)-4-4-(4)/-9h11----------|
|---------------------------------|
|---------------------------------|


                                                  ~~~
  E. S +S  S E +H       E. S +S  S E +E   S  S S  E.
|---------------------|------------------------------|
|---------------------|------------------------9-----|
|---------------------|-------------------9-11---11--|
|-0--0-(0)-0-0-(0)----|------------------------------|
|---------------------|-4--4-(4)-4-4-(4)/------------|
|---------------------|------------------------------|


  E. S +S  S E +E  S S E S S
|-----------------------------|
|-----------------------------|
|-----------------------------|
|-----------------------------|
|-2--2-(2)-2-2-(2)-2-2-2-2-2--|
|-----------------------------|


  E. S +S  S E +E  E S S E   E. S S S E +E  E E E   E. S S S E +E  E E E
|--------------------------|----------------------|----------------------|
|--------------------------|----------------------|----------------------|
|--------------------------|----------------------|----------------------|
|-2--2-(2)-2-2-(2)-2-2-2-2-|-0--0-0-0-0-(0)-0-0-0-|-2--2-2-2-2-(2)-2-2-2-|
|--------------------------|----------------------|----------------------|
|--------------------------|----------------------|----------------------|


  E. S S S E +E  E +E  E   E. S S S E +E  S S E E   E. S S S E +E  S S E E
|------------------------|------------------------|-------------------------|
|------------------------|------------------------|----------2-(2)-----2----|
|------------------------|------------------------|-------------------------|
|-0--0-0-0-0-(0)---------|------------------------|-0--0-0-0-------0-0---0--|
|----------------0-(0)-0-|-2--2-2-2-2-(2)-2-0-2-2-|-------------------------|
|------------------------|------------------------|-------------------------|


  E. S S S E +E  E S S E   E. S E E +E  E E E   E. S E E +E  E E   S  S
|------------------------|--------------------|--------------------------|
|----------4-(4)---4-4---|--------------------|--------------------------|
|------------------------|--------------------|--------------------------|
|-2--2-2-2-------2-----2-|-3--3-3-3-(3)-3-3-3-|-5--5-5-5-(5)-5-5/--------|
|------------------------|--------------------|-------------------10h12--|
|------------------------|--------------------|--------------------------|


  Q   E  E  +E   E  +E  E   +E   E  E  E  E  E  E   S  S
|-------19-(19)-----------|-----19-----------------------|
|----19---------19-(19)---|--------19----19--------------|
|-------------------------|------------------------------|
|-------------------------|-----------19----19-19\-------|
|-0---------------------0-|-(0)--------------------10h12-|
|-------------------------|------------------------------|


                          Q=137
  Q   E  E  +E  E +E   E     +H.        +E   E
|-------19-(19)-------<2>-|-(<2>)------(<2>)----|
|----19---------------<2>-|-(<2>)------(<2>)----|
|-------------------------|---------------------|
|-------------------------|---------------------|
|-0-------------0-(0)-----|------------------0--|
|-------------------------|---------------------|


  +E   E  E S S  S  S S S  E  E    +E   E  E S S E E +E  E
|-------------------------------|--------------------------|
|-------------------------------|--------------------------|
|-------------------------------|--------------------------|
|-------------------------------|--------------------------|
|-(0)-10-12-0-0-10h12-0-0-10-12-|-(12)-10-12-0-0-3-5-(5)-0-|
|-------------------------------|--------------------------|


  +E   E  E S S  S  S S S  E  E
|---------------------------------|
|---------------------------------|
|---------------------------------|
|---------------------------------|
|-(0)-10-12-0-0-10h12-0-0-10-12---|
|---------------------------------|


   +E   E  E S S  E E +E  E   +E   E  E S S  S  S S S  E  E
|---------------------------|-------------------------------|
|---------------------------|-------------------------------|
|---------------------------|-------------------------------|
|---------------------------|-------------------------------|
|-(12)-10-12-0-0-/5-3-(3)-0-|-(0)-10-12-0-0-10-12-0-0-10-12-|
|---------------------------|-------------------------------|

[ Tab from: http://www.guitartabs.cc/tabs/d/dream_theater/strange_deja_vu_btab_ver_2.html ]
   +E   E  E S S S S S S S S E
|---------------------------------|
|---------------------------------|
|---------------------------------|
|----------------------5-6-7------|
|-(12)-10-12-0-0-5-6-7-------0----|
|---------------------------------|


                                                          2/4
  +E   E  E S S  S  S S S  E  E    +E   E  E S S E E E E    E   E   E  E
|-------------------------------|------------------------|----------------|
|-------------------------------|------------------------|----------------|
|-------------------------------|------------------------|----------------|
|-------------------------------|------------------------|-<7>-<7>-<7>----|
|-(0)-10-12-0-0-10-12-0-0-10-12-|-(12)-10-12-0-0-3-4-5-0-|-------------0--|
|-------------------------------|------------------------|----------------|


 4/4
  +E   E  E S S  S  S S S  E  E    +E   E  E S S E E +E  E
|-------------------------------|--------------------------|
|-------------------------------|--------------------------|
|-------------------------------|--------------------------|
|-------------------------------|--------------------------|
|-(0)-10-12-0-0-10-12-0-0-10-12-|-(12)-10-12-0-0-3-5-(5)-0-|
|-------------------------------|--------------------------|


  +E   E  E S S  S  S S S  E  E
|----------------------------------|
|----------------------------------|
|----------------------------------|
|----------------------------------|
|-(0)-10-12-0-0-10-12-0-0-10-12----|
|----------------------------------|


   +E   E  E S S E E +E  E   +E   E  E S S  S  S S S  E  E
|--------------------------|-------------------------------|
|--------------------------|-------------------------------|
|--------------------------|-------------------------------|
|--------------------------|-------------------------------|
|-(12)-10-12-0-0-3-5-(5)-0-|-(0)-10-12-0-0-10-12-0-0-10-12-|
|--------------------------|-------------------------------|


   +E   E  E S S E E +E  E
|----------------------------|
|----------------------------|
|----------------------------|
|----------------------------|
|-(12)-10-12-0-0-3-5-(5)-0---|
|----------------------------|


  +E   E  E S S  S  S S S  E  E    +E   E  E S S E E +E   E
|-------------------------------|---------------------------|
|-------------------------------|---------------------------|
|-------------------------------|---------------------------|
|-------------------------------|---------------------------|
|-(0)-10-12-0-0-10-12-0-0-10-12-|-(12)-10-12-0-0-3-5-(5)-12-|
|-------------------------------|---------------------------|


   +E    E  E S S  S  S S S  E  E
|-----------------------------------|
|-----------------------------------|
|-----------------------------------|
|-----------------------------------|
|-(12)\-10-12-0-0-10-12-0-0-10-12---|
|-----------------------------------|


   +E   E  E S S E E +E   E    +E    E  E S S  S  S S S  E  E
|---------------------------|---------------------------------|
|---------------------------|---------------------------------|
|---------------------------|---------------------------------|
|---------------------------|---------------------------------|
|-(12)-10-12-0-0-3-5-(5)-12-|-(12)\-10-12-0-0-10-12-0-0-10-12-|
|---------------------------|---------------------------------|


   +E   E  E S S E E +E   E
|-----------------------------|
|-----------------------------|
|-----------------------------|
|-----------------------------|
|-(12)-10-12-0-0-3-5-(5)-12---|
|-----------------------------|


   +E    E  E S S  S  S S S  E  E    +E   E  E S S E E +E   E
|---------------------------------|---------------------------|
|---------------------------------|---------------------------|
|---------------------------------|---------------------------|
|---------------------------------|---------------------------|
|-(12)\-10-12-0-0-10-12-0-0-10-12-|-(12)-10-12-0-0-3-5-(5)-12-|
|---------------------------------|---------------------------|


   +E    E  E S S  S  S S S  E  E
|-----------------------------------|
|-----------------------------------|
|-----------------------------------|
|-----------------------------------|
|-(12)\-10-12-0-0-10-12-0-0-10-12---|
|-----------------------------------|


   +E   E  E S S E E E E   +E  E E E E E E E   +E  E E E E S S E E
|------------------------|-------------------|----------------------|
|------------------------|-------------------|----------------------|
|------------------------|---------------2---|----------------------|
|----------------------4-|-(4)---------2---4-|-(4)---------------4--|
|-(12)-10-12-0-0-3-4-5---|-----0-2-3-4-------|-----0-2-3-4-3-2-0----|
|------------------------|-------------------|----------------------|


  +E  E E E E E E E   +E  E E E E S S E E   +E  E E E E E E E
|-------------------|---------------------|--------------------|
|-------------------|---------------------|--------------------|
|---------------2---|-----------2---------|---------------2----|
|-(4)---------2---4-|-(4)---------4-2---4-|-(4)---------2---4--|
|-----0-2-3-4-------|-----0-2-3-------4---|-----0-2-3-4--------|
|-------------------|---------------------|--------------------|


                                           7/8
  +E  E E E E S S E E   +E  E E E E E E E   +E  E E E E S S E
|---------------------|-------------------|--------------------|
|---------------------|-------------------|--------------------|
|---------------------|---------------2---|-----------4--------|
|-(4)---------------4-|-(4)---------2---4-|-(4)---------6-4----|
|-----0-2-3-4-3-2-0---|-----0-2-3-4-------|-----0-2-3-------7--|
|---------------------|-------------------|--------------------|


 4/4                7/8                    4/4
  Q  E E E S S E E   +E  E  E E +E  E S S   Q  E E E S S E E
|------------------|----------------------|---------------------|
|------------------|----------------------|---------------------|
|----4-6---4h6-----|----------------------|----4-6---4h6--------|
|------------------|-----4-/6-4-(4)-------|---------------------|
|-4------4-----4-7-|-(7)------------7-2-3-|-4------4-----4-7----|
|------------------|----------------------|---------------------|


                                           7/8
  +E  E  E E +E  E E E   Q  E E E S S E E   +E  E  E E +E  E S S
|----------------------|------------------|-------------------------|
|----------------------|------------------|-------------------------|
|----------------------|----4-6---4h6-----|-------------------------|
|-----4-/6-4-(4)-------|------------------|-----4-/6-4-(4)----------|
|-(7)------------7-2-3-|-4------4-----4-7-|-(7)------------7-2-3----|
|----------------------|------------------|-------------------------|


                                         Q=118
 4/4
  Q  E E E S S E E   +E  E E E +E  E E E     W         W
|------------------|---------------------|--------|---------|
|------------------|---------------------|--------|---------|
|----4-6---4h6-----|---------------------|--------|---------|
|------------------|-----4-6-----------2-|---4----|---------|
|-4------4-----4-7-|-(7)-----2-(2)-3-4---|--------|----5----|
|------------------|---------------------|--------|---------|


                                    ~~
  W         E. S +S  S E +E   S S S E.      E. S +S  S E  +H
|-------|-------------------------------|------------------------|
|-------|-------------------------------|------------------------|
|-------|-------------------------------|------------------------|
|-------|-------------------------7h9---|---5--5-(5)-5-5--(5)----|
|-4-----|---2--2-(2)-2-2-(2)-/7h9-------|------------------------|
|-------|-------------------------------|------------------------|


                             Q.=144                Q
                              12/8
                          ~~
  E. S +S  S E +E   S S S E.   Q.   Q.   Q.   Q.
|----------------------------|---------------------|
|----------------------------|---------------------|
|-----------------------7----|---------------------|
|-4--4-(4)-4-4-(4)-/7h9---9--|-2----4----5---------|
|----------------------------|----------------4----|
|----------------------------|---------------------|


 =118
 4/4
                          ~~
  E. S +S  S E +E   S S S E.
|-------------------------------|
|-------------------------------|
|-------------------------------|
|-----------------------7h9-----|
|-2--2-(2)-2-2-(2)-/7h9---------|
|-------------------------------|


                         |-3--|
  E. S +S  S   E  +E   E S  S S  E
|----------------------------------|
|----------------------------------|
|------------/12-(12)-11-9h11p9\-7-|
|-5--5-(5)-5-----------------------|
|----------------------------------|
|----------------------------------|


                          ~~
  E. S +S  S E +E   S S S E.    E. S E E +E  E Q
|----------------------------|-----------------------|
|----------------------------|-----------------------|
|-----------------------7----|-----------------------|
|-4--4-(4)-4-4-(4)-/7h9---9--|-----------------------|
|----------------------------|--7--7-7-7-(7)-7-7\----|
|----------------------------|-----------------------|


  E. S E E +E  E E S S   E. S S S E +E  E E S S   E. S S S E +E  E S S E
|----------------------|------------------------|--------------------------|
|----------------------|------------------------|--------------------------|
|----------------------|------------------------|--------------------------|
|----------------------|-0--0-0-0-0-(0)-0-0-0-0-|-2--2-2-2-2-(2)-2-2-2-2---|
|-0--0-0-0-(0)-0-0-0-0-|------------------------|--------------------------|
|----------------------|------------------------|--------------------------|


  E. S S S E +E  E +E  E   E. S E  E +E  E S S E   E. S S S E +E  S S S S E
|------------------------|-----------------------|-----------------------------|
|------------------------|-----------------------|-----------------------------|
|------------------------|-----------------------|----------7-(7)--------------|
|-0--0-0-0-0-(0)---------|--------/9-(9)-9-7h9-9-|-0--0-0-0-------0-0-0-0-0----|
|----------------0-(0)-0-|-2--2-2----------------|-----------------------------|
|------------------------|-----------------------|-----------------------------|


  E. S S S E +E  S S S S E   E. S S S E +E  S S S S E
|--------------------------|--------------------------|
|--------------------------|--------------------------|
|--------------------------|--------------------------|
|-2--2-2-2-2-(2)-2-2-2-2-2-|-3--3-3-3-3-(3)-3-3-3-3-3-|
|--------------------------|--------------------------|
|--------------------------|--------------------------|


  E. S S S E +E  S S S S E
|----------------------------|
|----------------------------|
|----------------------------|
|-5--5-5-5-5-(5)-5-5-5-5-5---|
|----------------------------|
|----------------------------|


  E. S S S E +E  S S S S E   E. S E E +E  S S E E
|--------------------------|----------------------|
|--------------------------|------------------4---|
|----------7-(7)-----7-7---|----------------------|
|-0--0-0-0-------0-0-----0-|-2--2-2-2-(2)-2-2---2-|
|--------------------------|----------------------|
|--------------------------|----------------------|


  E. S S S E +E  E +E  E   E. S E  E +E  E S S E
|------------------------|--------------------------|
|------------------------|--------------------------|
|------------------------|--------------------------|
|-0--0-0-0-0-(0)---------|--------/9-(9)-9-7h9-9----|
|----------------0-(0)-0-|-2--2-2-------------------|
|------------------------|--------------------------|


  E. S S S E +E  S S S S E   E. S E E +E  S S E E
|--------------------------|----------------------|
|--------------------------|------------------4---|
|----------7-(7)-----7-7---|----------------------|
|-0--0-0-0-------0-0-----0-|-2--2-2-2-(2)-2-2---2-|
|--------------------------|----------------------|
|--------------------------|----------------------|


  H.=H
  E. S E E +E  E E E   E. S E E +E  E E E
|--------------------|----------------------|
|--------------------|----------------------|
|--------------------|----------------------|
|-3--3-3-3-(3)-3-3-3-|-3--3-3-3-(3)-3-3-3---|
|--------------------|----------------------|
|--------------------|----------------------|


  E. S E E +E  E E E        W              W
|--------------------|-------------|------------*|
|--------------------|-------------|------------*|
|--------------------|-------------|------------*|
|-5--5-5-5-(5)-5-5-5-|-------------|------------*|
|--------------------|------2------|-------3----*|
|--------------------|-------------|------------*|


Duration Legend
---------------
W - whole; H - half; Q - quarter; E - 8th; S - 16th; T - 32nd; X - 64th; a - acciaccatura
+ - note tied to previous; . - note dotted; .. - note double dotted
Uncapitalized letters represent notes that are staccato (1/2 duration)
Irregular groupings are notated above the duration line
Duration letters will always appear directly above the note/fret number it represents the
duration for.  Duration letters with no fret number below them represent rests.  Multi-
bar rests are notated in the form Wxn, where n is the number of bars to rest for.  Low
melody durations appear below the staff

Tablature Legend
----------------
 h   - hammer-on
 p   - pull-off
 b   - bend
 pb  - pre-bend
 r   - bend release (if no number after the r, then release immediately)
 /\  - slide into or out of (from/to "nowhere")
 s   - legato slide
 S   - shift slide
  - natural harmonic
[n]  - artificial harmonic
n(n) - tapped harmonic
 ~   - vibrato
 tr  - trill
 T   - tap
 TP  - trem. picking
 PM  - palm muting
\n/  - tremolo bar dip; n = amount to dip
 \n  - tremolo bar down
 n/  - tremolo bar up
/n\  - tremolo bar inverted dip
 =   - hold bend; also acts as connecting device for hammers/pulls
 <>  - volume swell (louder/softer)
 x   - on rhythm slash represents muted slash
 o   - on rhythm slash represents single note slash

Misc Legend
-----------
 |  - bar
||  - double bar
||o - repeat start
o|| - repeat end
*|  - double bar (ending)
 :  - bar (freetime)
 $  - Segno
 &  - Coda
Tempo markers -  = BPM(8/16=s8/s16), where s8 = swing 8ths, s16 = swing 16ths


*****************************************************************************************
* Generated using Power Tab Editor by B.S. Larsen - http://www.crosswinds.net/~powertab *
*****************************************************************************************
Comments