Dream Theater - Solitary Shell Chords & Tabs

 

Solitary Shell Chords & Tabs

Dream Theater Chords & Tabs

Version: 1 Type: Tab 0 ratings
1 star 2 stars 3 stars 4 stars 5 stars
comments

Solitary Shell Tab

Dream Theater - Solitary Shell (incompleted tab)
From: "Six Degrees Of Inner Turbulence"
Transcribed by Peter ( gammaray26@hotmail.com )

Normal tuning

This is NOT a good tab, I know. But I have just
an 1 minute mp3 of this song. So this transcribtion
is just the intro and verse 1. I'll complete the
tab when the album releases, wich is in 3 weeks
in Sweden.



Intro: (clean)

E|---------------------------------------------|
B|---------------------------------------------|
G|*-6--6-6----4--4-4----8--8-8----4--4-4-------|
D|*-6--6-6----4--4-4----8--8-8----4--4-4----6--|
A|--4--4-4----2--2-2----6--6-6----2--2-2----6--|
E|------------------------------------------4--|
[ Tab from: http://www.guitartabs.cc/tabs/d/dream_theater/solitary_shell_tab.html ]
E|---------------------------------------------|
B|---------------------------------------------|
G|--6--6-6----4--4-4----9--9-9----8--8-8----4-*| * Play 4
D|--6--6-6----4--4-4----9--9-9----8--8-8----4-*| * Times
A|--4--4-4----2--2-2----7--7-7----6--6-6----2--|
E|---------------------------------------------|


Verse:

E|-------------------------|
B|-------------------------|
G|*-6--6-6----4--4-4-------|
D|*-6--6-6----4--4-4----6--|
A|--4--4-4----2--2-2----6--|
E|----------------------4--|

He seem no different from the rest   (1)
His mama always do her best          (2)
Learn to walk and talk on time       (3)
...........................          (4)

E|-------------------------|
B|-------------------------|
G|--6--6-6----4--4-4------*| * Repeat 4
D|--6--6-6----4--4-4----2-*| * Times
A|--4--4-4----2--2-2----2--|
E|----------------------0--|

Just a healthy, normal boy           (1)
and he was daddy's pride and joy     (2)
..........................           (3)
..........................           (4)
Comments