Dream Theater - Scene Nine Finally Free Chords & Tabs

 

Scene Nine Finally Free Chords & Tabs

Dream Theater Chords & Tabs

Version: 2 Type: Tab 0 ratings
1 star 2 stars 3 stars 4 stars 5 stars
comments

Scene Nine Finally Free Tab

Intro

e----------2----------------------0h2p0---------------------------|
b------3--------3--------------3----------3-----------------------|
g----2---2---------2--------2----------------2--------------------|
d--0---------0-----------0----------------------0-----------------|
a-----------------------------------------------------------------|
e---------------------2-------------------------------------------|

--------------3--------------------------------0-----------------------|
-----------3----------------------3--------3------------3--------------|
--------0-----------------0-----------0h2------------------2-----------|
-----0------------------------0----------------------------------------|
---------------------0h2----------------------------4----------4-------|
-3----------------3----------------------------------------------------|


--------------2-----------------------------2-----------------------------|
-----------3----------3------------------3----------3---------------------|
-------4-----------------4------------4----------------4------------------|
----4-----------------------------4---------------------------------------|
-2----------------2------------0----------------0-------------------------|
--------------------------------------------------------------------------|


-------------2-------------------------0--------------------------------0-------------|
-----------3-------3----------------3----------3---------------2-3--------------------|
--------4------------4-----------4----------------4----------2-----0h2------2---------|
-----4------------------------2---------------------------2---------------------------|
-0--------------0--------------------------------------0------------------------------|
--------------------------4-----------------4-----------------------------------------|

[ Tab from: http://www.guitartabs.cc/tabs/d/dream_theater/scene_nine_finally_free_tab_ver_2.html ]
------------2--------------------------0h2p0---------------------------------|
------3------------3----------------3----------3-----------------------------|
---2-----2------------2----------2-----------------2-------------------------|
-0--------------0-------------0------------------------0---------------------|
-----------------------------------------------------------------------------|
---------------------------2-------------------------------------------------|


------------------------------------------------0----------------------------------|
-----------------0--------------------------------0--------------------------------|
---------0--0h2------2--0h2p0------0--------0--------0-----------------------------|
------0------------------------4---------2--------------2--------------------------|
--------------------------------------2--------------------------------------------|
--3--------------------------------0-----------------------------------------------|


--------------------------------------------0---------------------------------|
--------------2------------------------2h3-----3---2--0-----------------------|
-------2--------------2-------------2-----------------------------------------|
----2-----2--------------2-------2--------------------------------------------|
--4---------------4----------0------------------------------------------------|
------------------------------------------------------------------------------|


---------------2-------------------------------------------------------------------3---|
----------------------2------3--------------------------2--------2---2-----------2-----|
-3-----------------------3-------4---------4--------4-------3------------3----3--------|
-----4----4-------------------------4----------4--3------------2------------1----------|
-------4--------------------------------0----------------------------------------------|
-2-----------------2---------2-------------4------------0------------0-----------------|


-----------------------------------------------------------------------------------|
---------0-----4-----0--------------0-----4-----0------------------0-----4----0----|repeat 1 more time
------------3-----3-----3--------3-----3-----3-----3-----------3------3-----3---3--|
------3----------------------------------------------------------------------------|
-----------------------------------------------------------------------------------|
--4--------------------------4-----------------------------4-----------------------|


have fun!!!
Comments