Dream Theater - Peruvian Skies Chords & Tabs

 

Peruvian Skies Chords & Tabs

Dream Theater Chords & Tabs

Version: 1 Type: Tab 0 ratings
1 star 2 stars 3 stars 4 stars 5 stars
comments

Peruvian Skies Tab

Dream Theatre-Peruvian skies
This is a fantastic and accurate tab and am very proud of it Now This will take a while to perfect but is great when you do. 
E--------------|--------------|--------------|-----------------| 
B--------------|--------------|--------------|-----------------| 
G-------0------|-------2------|--------0-----|-----------------| 
D----------2---|--------------|----------2---|-----------------| 
A---2-4------1-|---2-4--------|----2-4-----1-|---2-4-3-----2---| 
E-0------------|-0--------3-2-|-0------------|-0-------3-2---0-| 

E--------------|-------------|---------------|-----------------| 
B--------------|-------------|---------------|-----------------| 
G-------0------|-------2-----|-------0-------|-----------------| 
D----------2---|-------------|-------------3-|-----------------| 
A---2-4------1-|---2-4-------|---2-4-----3---|---2-4-3-----2---| 
E-0------------|-0-------3-2-|-0-------1-----|-0-------3-2---0-| 

E---------|----|-----------|----------| 
B---------|----|-----------|----------| 
G-------0-|----|-------0---|----------| 
D---------|----|---------2-|---0---0--| 
A---2-4---|----|---2-4-----|----------| 
E-0-------|----|-0---------|-3---2----| 

E---------|---------|-0-------------|------------------| 
B---------|-----3---|---------------|------------------| 
G-------0-|-------4-|-----------0---|------------------| 
D---------|---5-----|-------------2-|-----0-----0---0--| 
A---2-4---|---------|-------2-4-----|---2-----2---2----| 
E-0-------|---------|-----0---------|-3-----2----------| 
 



Distortion from now on 
 
E-------------|-------------|-------------|--------------| 
B-------------|-------------|-------------|--------------| 
G-------------|-------------|-------------|--------------| 
D-3-3-3-3-3-3-|-3-3-3-3-3-3-|-3-3-3-3-3-3-|-3-3-3-3-3-3--| 
A-3-3-3-3-3-3-|-3-3-3-3-3-3-|-3-3-3-3-3-3-|-3-3-3-3-3-3--| 
E-1-1-1-1-1-1-|-1-1-1-1-1-1-|-1-1-1-1-1-1-|-1-1-1-1-1-1--| 


E----|------|-----------|------|----|------|-----|-----| 
B----|------|-----------|------|----|------|-----|-----| 
G----|------|--2--------|------|----|------|-----|--3--| 
D-2--|------|--2--------|------|-2--|------|--3--|--3--| 
A-2--|------|--0--0-2-3-|-5--7-|-2--|------|--3--|--1--| 
E-0--|-2--3-|-----------|------|-0--|-2--3-|--1--|-----| 


. 
E-----|-----|-----|-----|-----|-----|-----|-----| 
B-----|-----|-----|-----|-----|-----|-----|-----| 
G--7--|-----|--5--|-----|--7--|-----|--5--|--3--| 
D--7--|--7--|--5--|--5--|--7--|--7--|--5--|--3--| 
A--5--|--7--|--3--|--5--|--5--|--7--|--3--|--1--| 
E-----|--5--|-----|--3--|-----|--5--|-----|-----| 

E-----|-----|-----|-------------|-------------| 
B--3--|--3--|--3--|-------------|-------------| 
G--2--|--2--|--2--|-3-3-3-3-3-3-|-3---3---3---| 
D--0--|--0--|--0--|-3-3-3-3-3-3-|-3---3---3---| 
A-----|--3--|--2--|-1-1-1-1-1-1-|-1---1---1---| 
E-----|-----|-----|-------------|-------------| 

Here is the solo play with plenty of wah
E-----------------------------------------------------------| 
B-----------------------------------------------------------| 
G-------------------14--14\12-------------------------------| 
D----------12-14-15------------15-14-----15/(17)-\15--14-12-| 
A-12-14-15----------------------------15--------------------| 
E-----------------------------------------------------------| 

E-----------------------------------------------------------| 
B-----------------------------------------------------------| 
G----------------12-----12/(14)---14--------16/(17)---------| 
D-----9----12--9----12--------------5-14-------------------| 
A-/10---10--------------------------------------------------| 
E-----------------------------------------------------------| 

E--------------------------------------------------------------| 
B------------15--17--18--17--15-------------------17/(18)--17--| 
G----17--17------------------------------14-15-17--------------| 
D-17----------------------------14-15-17-----------------------| 
A--------------------------------------------------------------| 
E--------------------------------------------------------------| 
[ Tab from: http://www.guitartabs.cc/tabs/d/dream_theater/peruvian_skies_tab.html ]
E------------15----------------15/(17)--15/(17)\15-13-15-------| 
B----17/(18)----17-------15------------------------------------| 
G-14-----------------/14----14---------------------------------| 
D--------------------------------------------------------------| 
A--------------------------------------------------------------| 
E--------------------------------------------------------------| 
 
E--15 17 15 13 15 17 15 13 15 17 15 13---------10--------------| 
B--------------------------------------20/(22)----22======-----| 
G--------------------------------------------------------------| 
D--------------------------------------------------------------| 
A--------------------------------------------------------------| 
E--------------------------------------------------------------

E--------------|--------------|---------------|---------------| 
B--------------|--------------|---------------|---------------| 
G--------0-----|--------2-----|---------0-----|---------------| 
D--------0---3-|--------2-----|---------0---3-|---------------| 
A-2--2-4---2-1-|--2-2-4-------|-----2-4---2-1-|---2-4-3-----2-| 
E-0--------0---|--0-------3-2-|-0-0-------0---|-0-------3-2---| 
 

E--------------|----------------| 
B--------------|----------------| 
G--------------|----------------| 
D--2--2--------|--2--2----------| 
A--2--2--------|--2--2-----2-1--| 
E--0--0--------|--0--0----------| 

E----------------------|----------------------| 
B----------------------|----------------------| 
G----------------------|----------------------| 
D-2-2-----2-----2------|--2-2-----2-----------| 
A-2-2-----2-----2--3-5-|--2-2-----2-----2-1---| 
E-0-0-x-x-0-x-x-0--3-5-|--0-0-x-x-0-x-x-------| 

E----------------------|----------------------|| 
B----------------------|----------------------|| 
G----------------------|---------------------O|| 
D-2-2-----2-----2------|--2-2-----2----------O|| 
A-2-2-----2-----2--3-5-|--2-2-----2-----2-1---|| 
E-0-0-x-x-0-x-x-0--3-5-|--0-0-x-x-0-x-x-------|| 

E-------------------------|----------------------|| 
B-------------------------|----------------------|| 
G-------------------------|---------------------O|| 
D-2-2-----2-----2---------|--2-2-----2----------O|| 
A-2-2-----2-----2--2-1-0--|--2-2-----2---5-4-3---|| 
E-0-0-----0-----0---------|--0-0-----0-----------|| 

E-----------------------|-----------------------|| 
B-----------------------|-----------------------|| 
G-----------------3-----|-------------------3--O|| 
D-2---------------3-----|--2----------------3--O|| 
A-2---------------1-----|--2----------------1---|| 
E-0---(x-x-x-x-x)-------|--0----(x-x-x-x-x)-----|| 

with plenty of wah
E------------------|--------------------|| 
B------------------|--------------------|| 
G------------------|-------------------O|| 
D------------------|-------------------O|| 
A----7-5-----------|----5---------------|| 
E--0-----7-6-5---0-|------7-6-5-3-5-3---|| 

m m m m m m m m m m m m 
E----------------------------|-------------------------------| 
B----------------------------|-------------------------------| 
G----------------------------|-------------------------------| 
D-2--2-2-----2-2-----2-2-----|-2-2-----2-2-----2-2-----2-2---| 
A-0--0-0-0-0-0-0-0-0-0-0-0-0-|-0-0-0-0-0-0-0-0-0-0-0-0-0-0---| 
E----------------------------|-------------------------------| 


E----------------------------|-------------------------------| 
B----------------------------|-------------------------------| 
G----------------------------|-------------------------------| 
D-2--2-2-----2-2-----2-2-----|-2-2-----2-2-----2-2-----2-2---| 
A-0--0-0-----0-0-----0-0-----|-0-0-----0-0-----0-0-----0-0---| 
E-3--3-3-3-3-3-3-3-3-3-3-3-3-|-3-3-3-3-3-3-3-3-3-3-3-3-3-3---| 

 
E----------------------------|-------------------------------| 
B----------------------------|-------------------------------| 
G----------------------------|-------------------------------| 
D-2--2-2-----2-2-----2-2-----|-2-2-----2-2-----2-2-----2-2---| 
A-0--0-0-----0-0-----0-0-----|-0-0-----0-0-----0-0-----0-0---| 
E-2--2-2-2-2-2-2-2-2-2-2-2-2-|-2-2-2-2-2-2-2-2-2-2-2-2-2-2---| 

 
E--------------|-------------| 
B--------------|-------------| 
G--------------|-------------| 
D--3-3-3-3-3-3-|-3-3-3-3-3-3-| 
A--3-3-3-3-3-3-|-3-3-3-3-3-3-| 
E--1-1-1-1-1-1-|-1-1-1-1-1-1-| 

Hope you enjoy thanks bye any questions email me at  aaronstoops@hotmail.com




Dream theatre-Peruvian skies
Comments