Dream Theater - Panic Attack Chords & Tabs

 

Panic Attack Chords & Tabs

Dream Theater Chords & Tabs

Version: 1 Type: Bass Tab

Panic Attack Bass Tab

   
Dream Theater
Panic Attack Bass Tab (intro to 1st verse)

by Jacob M
email: radagastthebrown@juno.com
6-String Bass

Riff A 4/4
c-3-0-0-2-0-0-3-0-0-5-0-3-0-2-0-3-0-0-2-0-0-3-0-0-/8-0-7-0-5-0-|
G--------------------------------------------------------------|
D--------------------------------------------------------------|
A--------------------------------------------------------------|
E--------------------------------------------------------------|
B--------------------------------------------------------------|
[ Tab from: http://www.guitartabs.cc/tabs/d/dream_theater/panic_attack_btab.html ]
Riff B 4/4
c-----------------------------|
G-----------------------------|
D-----------------------------|
A-999999999999----7777777777--|
E-------------9999------------|
B-----------------------------|

Riff C  5/4/ Time
c--------------|
G--------------|
D--------------|
A--------------|
E-9--9-9-10-7--|
B--------------|

Riff D (Fill) 6/4 Time
c----------------|
G----------------|
D----------------|
A----------------|
E-5-5-55--7-7-77-|
B----------------|

Verse (Riff E) 5/4
c----------|
G----------|
D----------|
A----------|
E-5-5-5-55-|
B----------|

Fill
c-------------------|
G-------------------|
D-------------------|
A-9-9-9--7-7-7------|
E--------------10-9-|
B-------------------|

ill do more later
thanks, this is my first tab, so please rate!!!!