Dream Theater - Only A Matter Of Time Chords & Tabs

 

Only A Matter Of Time Chords & Tabs

Dream Theater Chords & Tabs

Version: 1 Type: Tab 0 ratings
1 star 2 stars 3 stars 4 stars 5 stars
comments

Only A Matter Of Time Tab

Only A Matter Of Time 
3:11-3:41   "A Father's benediction as his hopeful son departs..."
Repeat 4 times
    _
||  _|||------------------------------------------------|
|| |_ ||------------------------------------------------|
|     ||--------------------6---------------------------|
|  _  ||------------6---------------6-------4-------6---|
| |_| ||4---4---4-------4-------4-------4-------4-------|
| |_| ||------------------------------------------------|
[ Tab from: http://www.guitartabs.cc/tabs/d/dream_theater/only_a_matter_of_time_tab.html ]
       |------------------------------------------------|
       |------------------------------------------------|
       |--------------------4---------------------------|
       |------------4---------------4-------2-------4---|
       |2---2---2-------2-------2-------2-------2-------|
       |------------------------------------------------|    
    _
||  _|||------------------------------------------------|
|| |_ ||--------------------5---------------------------|
|     ||------------6---------------7-------6-----------|  
|  _  ||4---4---4-------4-------4-------4-------4-------|
| |_| ||--------------------------------------------4---|
| |_| ||------------------------------------------------|

  ||_ ||------------------------| 
  ||_|||------------------------|
  |   ||------------------------|
  | _ ||6-------7-------6-------|  
  ||_|||----4-------4-------4---|    
  ||_|||------------------------|    
    
    _
||  _||------------------------------------------------||
|| |_ |------------------------------------------------||
|     |6-----------6-----------6-----------6-----------||
|  _  |------------------------------------------------||
| |_| |----4---4-------4---4-------4---4-------4---4---||
| |_| |------------------------------------------------||
Comments