Dream Theater - Never Enough Chords & Tabs

 

Never Enough Chords & Tabs

Dream Theater Chords & Tabs

Version: 1 Type: Bass Tab 0 ratings
1 star 2 stars 3 stars 4 stars 5 stars
comments

Never Enough Bass Tab

Band- Dream Theater
Song- Never Enough

C||------|------|------|------|------|------|------|------|
G||------|------|------|------|------|------|------|------|
D||------|------|------|------|------|------|------|------|
A||------|------|------|------|------|------|------|------|
E||------|------|------|------|------|------|------|------|
B||------|------|------|------|------|------|------|------|


                                                                      
----------------------------------|----------------------------------|
----7-5---5-7---3---7-2-----2-----|----2-----------------------------|
--0-----0-----0---0-----0-5---0-5-|--0---3-0-2-3-0-2-0-3-0-5-0-7-2-3-|
----------------------------------|----------------------------------|
----------------------------------|----------------------------------|
----------------------------------|----------------------------------|


                                                                      
----------------------------------|----------------------------------|
----7-5---5-7---3---7-2-----2-----|----2-----------------------------|
--0-----0-----0---0-----0-5---0-5-|--0---3-0-2-3-0-2-0-3-0-5-0-7-2-3-|
----------------------------------|----------------------------------|
----------------------------------|----------------------------------|
----------------------------------|----------------------------------|


                                                                      
----------------------------------|----------------------------------|
----7-5---5-7---3---7-2-----2-----|----2-----------------------------|
--0-----0-----0---0-----0-5---0-5-|--0---3-0-2-3-0-2-0-3-0-5-0-7-2-3-|
----------------------------------|----------------------------------|
----------------------------------|----------------------------------|
----------------------------------|----------------------------------|


                                                                      
----------------------------------|----------------------------------|
----7-5---5-7---3---7-------2-----|----2-----------------------------|
--0-----0-----0---0---7-0-5---0-5-|--0---3-0-2-3-0-2-0-3-0-5-0-7-2-3-|
----------------------------------|----------------------------------|
----------------------------------|----------------------------------|
----------------------------------|----------------------------------|


                                                            
-----------------------------|-----------------------------|
-----------------------------|-----------------------------|
-----------------------------|-----------------------------|
-----------------------------|-----------------------------|
-----------------------------|-----------------------------|
--3-3-3-3--3-3-3--3-3----3-3-|--3-3-3-3--3-3-3--3-3----3-3-|


                                                            
-----------------------------|-----------------------------|
-----------------------------|-----------------------------|
-----------------------------|-----------------------------|
-----------------------------|-----------------------------|
-----------------------------|-----------------------------|
--3-3-3-3--3-3-3--3-3----3-3-|--3-3-3-3--3-3-3--3-3----3-3-|


                                                            
-----------------------------|-----------------------------|
-----------------------------|-----------------------------|
-----------------------------|-----------------------------|
-----------------------------|-----------------------------|
--3-3-3-3--3-3-3--3-3----3-3-|--3-3-3-3--3-3-3--3-3----3-3-|
-----------------------------|-----------------------------|


                                                            
-----------------------------|-----------------------------|
-----------------------------|-----------------------------|
-----------------------------|-----------------------------|
--4-4-4-4--4-4-4--4-4----4-4-|--4-4-4-4--4-4-4--4-4----4-4-|
-----------------------------|-----------------------------|
-----------------------------|-----------------------------|


                                                            
-----------------------------|-----------------------------|
-----------------------------|-----------------------------|
-----------------------------|-----------------------------|
-----------------------------|-----------------------------|
-----------------------------|-----------------------------|
--3-3-3-3--3-3-3--3-3----3-3-|--3-3-3-3--3-3-3--3-3----3-3-|


                                                            
-----------------------------|-----------------------------|
-----------------------------|-----------------------------|
-----------------------------|-----------------------------|
--1-1-1-1--1-1-1--1-1----1-1-|--1-1-1-1--1-1-1--1-1----1-1-|
-----------------------------|-----------------------------|
-----------------------------|-----------------------------|


                                                            
-----------------------------|-----------------------------|
-----------------------------|-----------------------------|
-----------------------------|-----------------------------|
-----------------------------|-----------------------------|
--3-3-3-3--3-3-3--3-3----3-3-|--3-3-3-3--3-3-3--3-3----3-3-|
-----------------------------|-----------------------------|


                                                            
-----------------------------|-----------------------------|
-----------------------------|-----------------------------|
-----------------------------|-----------------------------|
--4-4-4-4--4-4-4--4-4----4-4-|--4-4-4-4--4-4-4--4-4----4-4-|
-----------------------------|-----------------------------|
-----------------------------|-----------------------------|


                                                            
-----------------------------|-----------------------------|
-----------------------------|-----------------------------|
-----------------------------|-----------------------------|
-----------------------------|-----------------------------|
-----------------------------|-----------------------------|
--3-3-3-3--3-3-3--3-3----3-3-|--3-3-3-3--3-3-3--3-3----3-3-|


                                                            
-----------------------------|-----------------------------|
-----------------------------|-----------------------------|
-----------------------------|-----------------------------|
-----------------------------|-----------------------------|
-----------------------------|-----------------------------|
--5-5-5-5--5-5-5--5-5----5-5-|--5-5-5-5--5-5-5--5-5----5-5-|


                                                            
-----------------------------|-----------------------------|
-----------------------------|-----------------------------|
-----------------------------|-----------------------------|
-----------------------------|-----------------------------|
--3-3-3-3--3-3-3--3-3----3-3-|--3-3-3-3--3-3-3--3-3----3-3-|
-----------------------------|-----------------------------|


                                                              
-----------------------------|-------------------------------|
-----------------------------|-------------------------------|
-----------------------------|-------------------------------|
-----------------------------|-------------------------------|
--5-5-5-5--5-5-5--5-5----5-5-|--5-5-5-5-5----5----5/12-12-12-|
-----------------------------|-------------------------------|


                                                                            
------------------------|-------------------------|------------------------|
------------------------|-------------------------|------------------------|
------------------------|-------------------------|------------------------|
--1----1--1--1----1--1--|--1----1--1--1--1--1--1--|------------------------|
------------------------|-------------------------|------------------------|
------------------------|-------------------------|--3----3--3--3----3--3--|


                                                                             
-------------------------|------------------------|-------------------------|
-------------------------|------------------------|-------------------------|
-------------------------|------------------------|-------------------------|
-------------------------|--1----1--1--1----1--1--|--1----1--1--1--1--1--1--|
-------------------------|------------------------|-------------------------|
--3----3--3--3--3--3--3--|------------------------|-------------------------|


                                                                            
------------------------|-------------------------|------------------------|
------------------------|-------------------------|------------------------|
------------------------|-------------------------|------------------------|
------------------------|-------------------------|--1----1--1--1----1--1--|
------------------------|-------------------------|------------------------|
--3----3--3--3----3--3--|--3----3--3--3--3--3--3--|------------------------|


                                                                                
-------------------------|--------------------------|--------------------------|
-------------------------|--------------------------|--------------------------|
-------------------------|--------------------------|--------------------------|
--1----1--1--1--1--1--1--|--------------------------|--------------------------|
-------------------------|--1--1--1--1--1--1--1--1--|--1--1--1--1--1--1--1--1--|
-------------------------|--------------------------|--------------------------|


                                                                               
--------------------------|--------------------------|------------------------|
--------------------------|--------------------------|------------------------|
--------------------------|--------------------------|--0----0--0--0----0--0--|
--0--0--0--0--0--0--0--0--|--0--0--0--0--0--0--0--0--|------------------------|
--------------------------|--------------------------|------------------------|
--------------------------|--------------------------|------------------------|


                                                                            
------------------------|------------------------|-------------------------|
------------------------|------------------------|-------------------------|
------------------------|------------------------|-------------------------|
--3----3--3--3----3--3--|--1----1--1--1----1--1--|--1----1--1--1--1--1--1--|
------------------------|------------------------|-------------------------|
------------------------|------------------------|-------------------------|


                                                      
--------------------------|--------------------------|
--------------------------|--------------------------|
--------------------------|--------------------------|
--------------------------|--------------------------|
--1--1--1--1--1--1--1--1--|--1--1--1--1--1--1--1--1--|
--------------------------|--------------------------|


                                                      
--------------------------|--------------------------|
--------------------------|--------------------------|
--------------------------|--------------------------|
--------------------------|--------------------------|
--------------------------|--------------------------|
--1--1--1--1--1--1--1--1--|--2--2--2--2--2--2--2--2--|


                                                                           
---------------------------------------|----------------------------------|
---------------------------------------|----------------------------------|
--0-12P10P0H10H12P0H8P0H12P7P0H5H7P0H5P|--0H7P3P0H2H3P0H2P0H3P0H5P0H7P2H3P|
---------------------------------------|----------------------------------|
---------------------------------------|----------------------------------|
---------------------------------------|----------------------------------|


                                                                           
---------------------------------------|----------------------------------|
---------------------------------------|----------------------------------|
--0H12P10P0H10H12P0H8P0H12P7P0H5H7P0H5P|--0H7P3P0H2H3P0H2P0H3P0H5P0H7P2H3-|
---------------------------------------|----------------------------------|
---------------------------------------|----------------------------------|
---------------------------------------|----------------------------------|


                                   
----------------------------------|
----------------------------------|
----------------------------------|
----------------------------------|
----------------------------------|
--3-3-3-3-3-3-3-3-3-3-3-3-3-3-3-3/|


                                                   
--------------------------------------------------|
--------------------------------------------------|
--------------------------------------------------|
--------------------------------------------------|
--------------------------------------------------|
--10-10-10-10-10-10-10-10-10-10-10-10-10-10-10-10-|


                                   
----------------------------------|
----------------------------------|
----------------------------------|
----------------------------------|
----------------------------------|
--3-3-3-3-3-3-3-3-3-3-3-3-3-3-3-3/|


                                                   
--------------------------------------------------|
--------------------------------------------------|
--------------------------------------------------|
--------------------------------------------------|
--------------------------------------------------|
--11-11-11-11-11-11-11-11-11-11-11-11-11-11-11-11-|


                                                                      
----------------------------------|----------------------------------|
----------------------------------|----------------------------------|
----------------------------------|----------------------------------|
----------------------------------|----------------------------------|
--3-3-3-3-3-3-3-3-3-3-3-3-3-3-3-3-|----------------------------------|
----------------------------------|--5-5-5-5-5-5-5-5-5-5-5-5-5-5-5-5-|


                                                                      
----------------------------------|----------------------------------|
----------------------------------|----------------------------------|
----------------------------------|----------------------------------|
------------------1-1-1-1-1-1-1-1-|--0-0-0-0-0-0-0-0-----------------|
----------------------------------|----------------------------------|
--2-2-2-2-2-2-2-2-----------------|------------------2-2-2-2-2-2-2-2-|


                                   
----------------------------------|
----------------------------------|
----------------------------------|
----------------------------------|
----------------------------------|
--3-3-3-3-3-3-3-3-3-3-3-3-3-3-3-3/|


                                                   
--------------------------------------------------|
--------------------------------------------------|
--------------------------------------------------|
--------------------------------------------------|
--------------------------------------------------|
--10-10-10-10-10-10-10-10-10-10-10-10-10-10-10-10-|


                                   
----------------------------------|
----------------------------------|
----------------------------------|
----------------------------------|
----------------------------------|
--5-5-5-5-5-5-5-5-5-5-5-5-5-5-5-5/|


                                                   
--------------------------------------------------|
--------------------------------------------------|
--------------------------------------------------|
--------------------------------------------------|
--------------------------------------------------|
--11-11-11-11-11-11-11-11-11-11-11-11-11-11-11-11-|


                                                                      
----------------------------------|----------------------------------|
----------------------------------|----------------------------------|
----------------------------------|----------------------------------|
----------------------------------|----------------------------------|
--3-3-3-3-3-3-3-3-3-3-3-3-3-3-3-3-|----------------------------------|
----------------------------------|--5-5-5-5-5-5-5-5-5-5-5-5-5-5-5-5-|


                                                                      
----------------------------------|----------------------------------|
----------------------------------|----------------------------------|
----------------------------------|----------------------------------|
------------------1-1-1-1-1-1-1-1-|--0-0-0-0-0-0-0-0-----------------|
----------------------------------|----------------------------------|
--2-2-2-2-2-2-2-2-----------------|------------------2-2-2-2-2-2-2-2-|


                                                            
-----------------------------|-----------------------------|
-----------------------------|-----------------------------|
-----------------------------|-----------------------------|
-----------------------------|-----------------------------|
-----------------------------|-----------------------------|
--3-3-3-3--3-3-3--3-3----3-3-|--3-3-3-3--3-3-3--3-3----3-3-|


                                                            
-----------------------------|-----------------------------|
-----------------------------|-----------------------------|
-----------------------------|-----------------------------|
-----------------------------|-----------------------------|
-----------------------------|-----------------------------|
--5-5-5-5--5-5-5--5-5----5-5-|--5-5-5-5--5-5-5--5-5----5-5-|


                                                            
-----------------------------|-----------------------------|
-----------------------------|-----------------------------|
-----------------------------|-----------------------------|
-----------------------------|-----------------------------|
--3-3-3-3--3-3-3--3-3----3-3-|--3-3-3-3--3-3-3--3-3----3-3-|
-----------------------------|-----------------------------|


                                                                 
-----------------------------|----------------------------------|
-----------------------------|----------------------------------|
-----------------------------|----------------------------------|
-----------------------------|------------------4-4-4-4-4-4-4-4-|
--5-5-5-5--5-5-5--5-5----5-5-|----------------------------------|
-----------------------------|--2-2-2-2-2-2-2-2-----------------|


                                                                            
------------------------|-------------------------|------------------------|
------------------------|-------------------------|------------------------|
------------------------|-------------------------|------------------------|
--1----1--1--1----1--1--|--1----1--1--1--1--1--1--|------------------------|
------------------------|-------------------------|------------------------|
------------------------|-------------------------|--3----3--3--3----3--3--|

[ Tab from: http://www.guitartabs.cc/tabs/d/dream_theater/never_enough_btab.html ]
                                                                             
-------------------------|------------------------|-------------------------|
-------------------------|------------------------|-------------------------|
-------------------------|------------------------|-------------------------|
-------------------------|--1----1--1--1----1--1--|--1----1--1--1--1--1--1--|
-------------------------|------------------------|-------------------------|
--3----3--3--3--3--3--3--|------------------------|-------------------------|


                                                                            
------------------------|-------------------------|------------------------|
------------------------|-------------------------|------------------------|
------------------------|-------------------------|------------------------|
------------------------|-------------------------|--1----1--1--1----1--1--|
------------------------|-------------------------|------------------------|
--3----3--3--3----3--3--|--3----3--3--3--3--3--3--|------------------------|


                                                                                
-------------------------|--------------------------|--------------------------|
-------------------------|--------------------------|--------------------------|
-------------------------|--------------------------|--------------------------|
--1----1--1--1--1--1--1--|--------------------------|--------------------------|
-------------------------|--1--1--1--1--1--1--1--1--|--1--1--1--1--1--1--1--1--|
-------------------------|--------------------------|--------------------------|


                                                                               
--------------------------|--------------------------|------------------------|
--------------------------|--------------------------|------------------------|
--------------------------|--------------------------|--0----0--0--0----0--0--|
--0--0--0--0--0--0--0--0--|--0--0--0--0--0--0--0--0--|------------------------|
--------------------------|--------------------------|------------------------|
--------------------------|--------------------------|------------------------|


                                                                            
------------------------|------------------------|-------------------------|
------------------------|------------------------|-------------------------|
------------------------|------------------------|-------------------------|
--3----3--3--3----3--3--|--1----1--1--1----1--1--|--1----1--1--1--1--1--1--|
------------------------|------------------------|-------------------------|
------------------------|------------------------|-------------------------|


                                                      
--------------------------|--------------------------|
--------------------------|--------------------------|
--------------------------|--------------------------|
--------------------------|--------------------------|
--1--1--1--1--1--1--1--1--|--1--1--1--1--1--1--1--1--|
--------------------------|--------------------------|


                                                                              
--------------------------|--------------------------|---|---|---|---|---|---|
--------------------------|--------------------------|---|---|---|---|---|---|
--------------------------|--------------------------|---|---|---|---|---|---|
--------------------------|--------------------------|---|---|---|---|---|---|
--------------------------|--------------------------|---|---|---|---|---|---|
--1--1--1--1--1--1--1--1--|--2--2--2--2--2--2--2--2--|---|---|---|---|---|---|


                                                              
---|---|--------------------------|--------------------------|
---|---|--------------------------|--------------------------|
---|---|--------------------------|--------------------------|
---|---|--------------------------|--------------------------|
---|---|--1--1--1--1--1--1--1--1--|--1--1--1--1--1--1--1--1--|
---|---|--------------------------|--------------------------|


                                                      
--------------------------|--------------------------|
--------------------------|--------------------------|
--------------------------|--------------------------|
--------------------------|--------------------------|
--1--1--1--1--1--1--1--1--|--1--1--1--1--1--1--1--1--|
--------------------------|--------------------------|


                                                      
--------------------------|--------------------------|
--------------------------|--------------------------|
--------------------------|--------------------------|
--1--1--1--1--1--1--1--1--|--1--1--1--1--1--1--1--1--|
--------------------------|--------------------------|
--------------------------|--------------------------|


                                                      
--------------------------|--------------------------|
--------------------------|--------------------------|
--------------------------|--------------------------|
--------------------------|--------------------------|
--0--0--0--0--0--0--0--0--|--0--0--0--0--0--0--0--0--|
--------------------------|--------------------------|


                                                      
--------------------------|--------------------------|
--------------------------|--------------------------|
--------------------------|--------------------------|
--------------------------|--------------------------|
--1--1--1--1--1--1--1--1--|--1--1--1--1--1--1--1--1--|
--------------------------|--------------------------|


                                                      
--------------------------|--------------------------|
--------------------------|--------------------------|
--------------------------|--------------------------|
--------------------------|--------------------------|
--3--3--3--3--3--3--3--3--|--3--3--3--3--3--3--3--3--|
--------------------------|--------------------------|


                                                      
--------------------------|--------------------------|
--------------------------|--------------------------|
--------------------------|--------------------------|
--1--1--1--1--1--1--1--1--|--1--1--1--1--1--1--1--1--|
--------------------------|--------------------------|
--------------------------|--------------------------|


                                                       
--------------------------|---------------------------|
--------------------------|---------------------------|
--------------------------|---------------------------|
--------------------------|--------------------3-3--3-|
--------------------------|---------------------------|
--1--1--1--1--1--1--1--1--|--1--1--1--1--1--1---------|


                                                      
--------------------------|--------------------------|
--------------------------|--------------------------|
--------------------------|--------------------------|
--------------------------|--------------------------|
--1--1--1--1--1--1--1--1--|--1--1--1--1--1--1--1--1--|
--------------------------|--------------------------|


                                                      
--------------------------|--------------------------|
--------------------------|--------------------------|
--------------------------|--------------------------|
--------------------------|--------------------------|
--1--1--1--1--1--1--1--1--|--1--1--1--1--1--1--1--1--|
--------------------------|--------------------------|


                                                      
--------------------------|--------------------------|
--------------------------|--------------------------|
--------------------------|--------------------------|
--1--1--1--1--1--1--------|--1--1--1--1--1--1--1--1--|
--------------------1--1--|--------------------------|
--------------------------|--------------------------|


                                                              
--------------------------|----------------------------------|
--------------------------|----------------------------------|
--------------------------|----------------------------------|
--------------------------|----------------------------------|
--1--1--1--1--1--1--1--1/-|--12--12--12--12--12--12--12--12--|
--------------------------|----------------------------------|


                                                      
--------------------------|--------------------------|
--------------------------|--------------------------|
--------------------------|--------------------------|
--------------------------|--------------------------|
--1--1--1--1--1--1--1--1--|--1--1--1--1--1--1--1--1--|
--------------------------|--------------------------|


                                                      
--------------------------|--------------------------|
--------------------------|--------------------------|
--------------------------|--------------------------|
--------------------------|--------------------------|
--3--3--3--3--3--3--3--3--|--3--3--3--3--3--3--3--3--|
--------------------------|--------------------------|


                                                      
--------------------------|--------------------------|
--------------------------|--------------------------|
--------------------------|--------------------------|
--1--1--1--1--1--1--1--1--|--1--1--1--1--1--1--1--1--|
--------------------------|--------------------------|
--------------------------|--------------------------|


                                                      
--------------------------|--------------------------|
--------------------------|--------------------------|
--------------------------|--------------------------|
--3--3--3--3--3--3--3--3--|--3--3--3--3--3--3--3--3--|
--------------------------|--------------------------|
--------------------------|--------------------------|


                                                      
--------------------------|--------------------------|
--------------------------|--------------------------|
--------------------------|--------------------------|
--------------------------|--------------------------|
--------------------------|--------------------------|
--3--3--3--3--3--3--3--3--|--3--3--3--3--3--3--3--3--|


                                                      
--------------------------|--------------------------|
--------------------------|--------------------------|
--------------------------|--------------------------|
--------------------------|--------------------------|
--0--0--0--0--0--0--0--0--|--0--0--0--0--0--0--0--0--|
--------------------------|--------------------------|


                                                      
--------------------------|--------------------------|
--------------------------|--------------------------|
--------------------------|--------------------------|
--------------------------|--------------------------|
--3--3--3--3--3--3--3--3--|--3--3--3--3--3--3--3--3--|
--------------------------|--------------------------|


                                                      
--------------------------|--------------------------|
--------------------------|--------------------------|
--------------------------|--------------------------|
--------------------------|--------------------------|
--5--5--5--5--5--5--5--5--|--5--5--5--5--5--5--5--5--|
--------------------------|--------------------------|


                                                      
--------------------------|--------------------------|
--------------------------|--------------------------|
--------------------------|--------------------------|
--------------------------|--------------------------|
--------------------------|--------------------------|
--3--3--3--3--3--3--3--3--|--3--3--3--3--3--3--3--3--|


                                                      
--------------------------|--------------------------|
--------------------------|--------------------------|
--------------------------|--------------------------|
--------------------------|--------------------------|
--0--0--0--0--0--0--0--0--|--0--0--0--0--0--0--0--0--|
--------------------------|--------------------------|


                                                      
--------------------------|--------------------------|
--------------------------|--------------------------|
--------------------------|--------------------------|
--------------------------|--------------------------|
--3--3--3--3--3--3--3--3--|--3--3--3--3--3--3--3--3--|
--------------------------|--------------------------|


                                                                               
--------------------------|--------------------------|------------------------|
--------------------------|--------------------------|------------------------|
--------------------------|--------------------------|------------------------|
--------------------------|--------------------------|--1----1--1--1----1--1--|
--5--5--5--5--5--5--5--5--|--5--5--5--5--5--5--5--5--|------------------------|
--------------------------|--------------------------|------------------------|


                                                                             
-------------------------|------------------------|-------------------------|
-------------------------|------------------------|-------------------------|
-------------------------|------------------------|-------------------------|
--1----1--1--1--1--1--1--|------------------------|-------------------------|
-------------------------|------------------------|-------------------------|
-------------------------|--3----3--3--3----3--3--|--3----3--3--3--3--3--3--|


                                                                            
------------------------|-------------------------|------------------------|
------------------------|-------------------------|------------------------|
------------------------|-------------------------|------------------------|
--1----1--1--1----1--1--|--1----1--1--1--1--1--1--|------------------------|
------------------------|-------------------------|------------------------|
------------------------|-------------------------|--3----3--3--3----3--3--|


                                                                             
-------------------------|------------------------|-------------------------|
-------------------------|------------------------|-------------------------|
-------------------------|------------------------|-------------------------|
-------------------------|--1----1--1--1----1--1--|--1----1--1--1--1--1--1--|
-------------------------|------------------------|-------------------------|
--3----3--3--3--3--3--3--|------------------------|-------------------------|


                                                      
--------------------------|--------------------------|
--------------------------|--------------------------|
--------------------------|--------------------------|
--------------------------|--------------------------|
--1--1--1--1--1--1--1--1--|--1--1--1--1--1--1--1--1--|
--------------------------|--------------------------|


                                                                               
--------------------------|--------------------------|------------------------|
--------------------------|--------------------------|------------------------|
--------------------------|--------------------------|--0----0--0--0----0--0--|
--0--0--0--0--0--0--0--0--|--0--0--0--0--0--0--0--0--|------------------------|
--------------------------|--------------------------|------------------------|
--------------------------|--------------------------|------------------------|


                                                                            
------------------------|------------------------|-------------------------|
------------------------|------------------------|-------------------------|
------------------------|------------------------|-------------------------|
--3----3--3--3----3--3--|--1----1--1--1----1--1--|--1----1--1--1--1--1--1--|
------------------------|------------------------|-------------------------|
------------------------|------------------------|-------------------------|


                                                      
--------------------------|--------------------------|
--------------------------|--------------------------|
--------------------------|--------------------------|
--------------------------|--------------------------|
--1--1--1--1--1--1--1--1--|--1--1--1--1--1--1--1--1--|
--------------------------|--------------------------|


                                                      
--------------------------|--------------------------|
--------------------------|--------------------------|
--------------------------|--------------------------|
--------------------------|--------------------------|
--------------------------|--------------------------|
--1--1--1--1--1--1--1--1--|--2--2--2--2--2--2--2--2--|


                                                                           
---------------------------------------|----------------------------------|
---------------------------------------|----------------------------------|
--0-12P10P0H10H12P0H8P0H12P7P0H5H7P0H5P|--0H7P3P0H2H3P0H2P0H3P0H5P0H7P2H3P|
---------------------------------------|----------------------------------|
---------------------------------------|----------------------------------|
---------------------------------------|----------------------------------|


                                                                           
---------------------------------------|----------------------------------|
---------------------------------------|----------------------------------|
--0H12P10P0H10H12P0H8P0H12P7P0H5H7P0H5P|--0H7P3P0H2H3P0H2P0H3P0H5P0H7P2H3-|
---------------------------------------|----------------------------------|
---------------------------------------|----------------------------------|
---------------------------------------|----------------------------------|


                                                                           
---------------------------------------|----------------------------------|
---------------------------------------|----------------------------------|
--0-12P10P0H10H12P0H8P0H12P7P0H5H7P0H5P|--0H7P3P0H2H3P0H2P0H3P0H5P0H7P2H3P|
---------------------------------------|----------------------------------|
---------------------------------------|----------------------------------|
---------------------------------------|----------------------------------|


                                                                           
---------------------------------------|----------------------------------|
---------------------------------------|----------------------------------|
--0H12P10P0H10H12P0H8P0H12P7P0H5H7P0H5P|--0H7P3P0H2H3P0H2P0H3P0H5P0H7P2H3-|
---------------------------------------|----------------------------------|
---------------------------------------|----------------------------------|
---------------------------------------|----------------------------------|


                                                                              
-------------------|------------------|------------------|------------------||
-------------------|------------------|------------------|------------------||
-------------------|------------------|------------------|------------------||
-------------------|------------------|------------------|------------------||
-------------------|------------------|------------------|------------------||
--3----------------|------------------|------------------|------------------||
Comments