Dream Theater - Misunderstood Chords & Tabs

 

Misunderstood Chords & Tabs

Dream Theater Chords & Tabs

Version: 1 Type: Bass Tab 0 ratings
1 star 2 stars 3 stars 4 stars 5 stars
comments

Misunderstood Bass Tab

Standard Tuning

Chorus 1 (1:42)

G|----------|---------------|----------|----------------|
D|----------|---------------|----------|----------------|
A|----------|---------------|----------|----------------|
E|----------|-6-6-3-3-------|----------|-6-6-88---------|
B|3-33/15---|---------55-66-|3-33/15---|--------6h8-5h6-|

G|----------|---------------|----------|------------|-----|
D|----------|---------------|----------|------------|-----|
A|----------|---------------|----------|------------|-----|
E|----------|-6-663-3-------|-----3----|5----6-/12-\|-----|
B|3-3-33/15-|---------55-6--|6---------|------------|-3---|

Bridge 

G|---------------|
D|---------------|
A|---------------|
E|-/15-\---/13-\-|
B|---------------|


Verse 1 (2:59)

G|----------|--------------|----------|--------------|
D|----------|--------------|----------|--------------|
A|----------|--------------|----------|--------------|
E|----------|-----8-10-13\-|----------|-----8-10-15\-|
B|33-11-3-3-|--10----------|33-11-3-1-|--10----------|

G|----------|--------------|
D|----------|--------------|
A|----------|--------------|
E|----------|-----8-10-13\-|
B|33-11-3-3-|--10----------|

Prechorus 1

G|----------|----------|----------|----------|----------|
D|----------|----------|----------|----------|----------|
A|----------|----------|----------|----------|----------|
E|3----5----|6----5----|3----5----|----------|-----3----|
B|----------|----------|----------|3----5----|6---------|

Chorus 2 

G|------------|--------------|------------|-----------------|
D|------------|--------------|------------|-----------------|
A|------------|--------------|------------|-----------------|
E|------------|6-6-3-3-------|------------|/6-66h88---------|
B|3-333-33--33|--------55-6--|3-333-33-33-|--------6h8-5h6-6|

G|------------|-------------|--------------|-----------------|
D|------------|-------------|--------------|-----------------|
A|------------|-------------|--------------|-----------------|
E|------------|6-6-3-3------|---------3-33-|5-55-6-6-/12-12-\|
B|3-333-33--33|--------55-5-|6-66-666------|-----------------|

G|----------------|----------------|---------------|--------------|
D|----------------|----------------|---------------|--------------|
A|------3/5-5-5-5-|----------------|---------------|--------------|
E|----------------|6-6-6-6-6-6-6-6-|---------------|6-66-3-33-3-1-|
B|3-3-3-----------|----------------|3-33-3-3-3-3-3-|--------------|

G|------------------|----------------|---------------|----------|
D|------------------|----------------|---------------|----------|
A|------------3/5-5-|----------------|-----3/5-5-5-5-|----------|
E|------------------|6-6-6-6-6-6-6-6-|---------------|6-66-3-33-|
B|3-3-3-3-3-3-------|----------------|3-33-----------|----------|

Interlude 1 
[ Tab from: http://www.guitartabs.cc/tabs/d/dream_theater/misunderstood_btab.html ]
G|------||-----------|-------------|----------|-------------|| repeat 
D|------||-----------|-------------|----------|------------o||
A|------||-----------|-------------|----------|4--5---------||
E|2-3--4||-2--3--5-6-|------2-3--4-|2--3--5-6-|-----3--2-4-o||
B|------||-----------|2--1---------|----------|-------------||

G|-----------|----------------|----------|---------------|
D|-----------|----------------|----------|---------------|
A|-----------|----------------|----------|---------------|
E|-2--3--5-6-|----------------|2--3--5-6-|8------8-6-5-4-|
B|-----------|2--3--x-5--x-6--|----------|---------------|

Pre-chorus 2

G|----------|----------|----------|----------|----------|
D|----------|----------|----------|----------|----------|
A|----------|----------|----------|----------|----------|
E|3----5----|6----5----|3----5----|----------|/6---5----|
B|----------|----------|----------|3----5----|----------|

G|----------|----------|----------|
D|----------|----------|----------|
A|----------|----------|----------|
E|----------|3----5----|6---------|
B|3----5----|----------|-----5----|

Chorus 3

G|------------|--------------|------------|-----------------|
D|------------|--------------|------------|-----------------|
A|------------|--------------|------------|-----------------|
E|------------|6-6-3-3-------|------------|/6-66h88---------|
B|3-333-33--33|--------55-6--|3-333-33-33-|--------6h8-5h6-6|

G|------------|-------------|--------------|-----------------|
D|------------|-------------|--------------|-----------------|
A|------------|-------------|--------------|-----------------|
E|------------|6-6-3-3------|---------3-33-|5-55-6-6-/12-12-\|
B|3-333-33--33|--------55-5-|6-66-666------|-----------------|

(6:11)

G|---------------|---------------|--------------|--------------|
D|---------------|---------------|--------------|--------------|
A|---------------|---------------|--------------|--------------|
E|---------------|6-66-6--66-6-6-|--------------|6-66-3-33-3-1-|
B|3-33-3--33-3-3-|---------------|3-33-3-33-3-3-|--------------|

G|---------------|----------------|--------------|-----------|
D|---------------|----------------|--------------|-----------|
A|---------------|----------------|--------------|-----------|
E|---------------|6-6-6-6-6-6-6-6-|--------------|/6-66-3-33-|
B|3-33-3--33-3-3-|----------------|3-33-3-33-3-3-|-----------|

Interlude 2 (6:36)

G|------||-----------|-------------|----------|------------| 
D|------||-----------|-------------|----------|------------|
A|------||-----------|-------------|----------|4--5--------|
E|2-3--4||-2--3--5-6-|------2-3--4-|2--3--5-6-|-----3--2-4-|
B|------||-----------|2--1---------|----------|------------|

G|------------|----------------|----------|------------|
D|*-----------|----------------|----------|-----------*|
A|*-----------|----------------|----------|-----------*|
E|-2--3--5-6--|----------------|2--3--5-6-|8--------9--|
B|------------|2--3--x-5--x-6--|----------|------------|

Thanks, please rate it after you learn it.
Comments