Dream Theater - Metropolis Part 1 Chords & Tabs

 

Metropolis Part 1 Chords & Tabs

Dream Theater Chords & Tabs

Version: 2 Type: Tab 0 ratings
1 star 2 stars 3 stars 4 stars 5 stars
comments

Metropolis Part 1 Tab

DreamTtheater - Metopolis Pt.1


Tabbed By Curtis Blanchette, Age 13, Canada.

The most of this song is palm muted but you'd have to listen to the song to figure out exaclty when it is and isn't.

  |=-Effect Legend=-
  |    -"*"         = Artificial Harmonics
  |    -"Dive Bomb" = Use wammy bar to drop all 6 strings loose then back up to normal.
  |    -">>>"       = Slide Up
 

 -=INTRO=- (palm muted)
|-----------------|---------------------------|-----------------------------|----------------------------|-----------------|
|-----------------|---------------------------|-----------------------------|----------------------------|-----------------|
|-----------------|---------------------------|-----------------------------|----------------------------|-----------------|
|-----------------|---------------------------|-----------------------------|----------------------------|-----------------|
|-----------------|---------------------------|-----------------------------|----------------------------|-----------------|
|--0-0-0-0-0------|------0-0-0-0-0-----0------|------0-0-0-0-0-----0-0------|-------0-0-0-0-0-----0------|------0-0-0-0-0--|


|---------------------------------3-----------------------x----------------------------------------------------------------|
|-----------------------------------3---------------------x----------------------------------------------------------------|
|----------------------------5--------5------------------*4---DiveBomb----------5----5-7-9-11------------------------------|
|-----4-5-2--------------4-5-5---------------4-5-2--------x-----------------4-5-5----x-x-x-x-------------------------------|
|-----4-5-2--------------4-5-3---------------4-5-2--------x-----------------4-5-3----3-5-7-9--10-9-10-9-10-9-10-9-10-9-----|
|-0-0-2-3-0----------0-0-2-3-------------0-0-2-3-0--------x-------------0-0-2-3--------------------------------------------|


|--------------------------------------------------------------------------------------------------------------------------|
|--------------------------------------------------------------------------------------------------------------------------|
|------------------------------------------------------------------5----------------------------2--------------------------|
|----4-5-2-----------------------------------------------------4-5-5--------12--11--9--7--5--4--2--2-----------------------|
|----4-5-2----------------7-------7----7------7----7------7----4-5-3---------x---x--x--x--x--x--0--2-----------------------|
|0-0-2-3-0----------0-0-0--0-0-0---0-0--0-0-0--0-0--0-0-0--0-0-2-3----------10---9--7--5--3--2-----0-----------------------|

[ Tab from: http://www.guitartabs.cc/tabs/d/dream_theater/metropolis_part_1_tab_ver_2.html ]
|------0-0------0-0------0-0-------0-0--------0-0--|-----------------------------|-----------------------------------------|
|-3>>>5----5>>>7----7>>>8----8>>>10----10>>>12-----|-----------------------------|-----------------------------------------|
|--------------------------------------------------|-------5---5--7--9-11--12----|----------------------*5---Wammy---------|
|--------------------------------------------------|---4-5-5---x--x--x--x---x----|-------4-5-2--------*5-------------------|
|--------------------------------------------------|---4-5-3---3--5--7--9--10----|-------4-5-2------*5---------------------|
|--------------------------------------------------|---2-3-----------------------|---0-0-2-3-0----*4-----------------------|


|------------------------------------------------------------|-------------------------------------------------------------|
|------------------------------------------------------------|-------------------------------------------------------------|
|-----------------------5--------------------------------7---|-----------------------4--------------------------------7----|
|----2-2-2-2-2----2-2-2-----------------------------7--0-5---|----2-2-2-2-2----2-2-2-----------------------------7--0-5----|
|--------------------------------7-7-7-7-7-5--5-5-5-5--------|--------------------------------7-7-7-7-7-5--5-5-5-5---------|
|------------------------------------------------------------|-------------------------------------------------------------|


|----------------------------------------------------------------:||
|----------------------------------------------------------------:||  Reapet But Change the first "5" on the G String to a 4.
|--------------------5--------------------5-4-2------------------:||
|-2-2-2-2-2----2-2-2------2-2-2-2-2--2---------5-4-2-----------2-:||
|---------------------------------------------------5-3-2------2-:||
|--------------------------------------------------------5-3-2-0-:||


|--------------------------------------------------------------------------------------------------------------------------|
|--------------------------------------------------------------------------------------------------------------------------|
|--------------------------------------------------------------------------------------------------------------------------|
|--------------------------------------------------------------------------------------------------------------------------|
|--------------------------------------------------------------------------------------------------------------------------|
|-0-0-0-0 etc. Listen to song for rythm. ----------------------------------------------------------------------------------|
Comments