Dream Theater - Metropolis Part 1 Chords & Tabs

 

Metropolis Part 1 Chords & Tabs

Dream Theater Chords & Tabs

Version: 1 Type: Bass Tab 0 ratings
1 star 2 stars 3 stars 4 stars 5 stars
comments

Metropolis Part 1 Bass Tab

Dream Theater - Metropolis Part 1 Solol
Submitted By: Misery
EMail: kaiowas@swirve.com


4 times                 4 times                    2 times
G---|--------11-------------|--------12---------------|--------14--------------|
D-9-|---4----------4---9----|---5----------5----10----|---7----------7----12---|
A-8-|------9----9----9---9--|-----10----10---10----10-|-----12----12---12---12-|
E---|-2---------------------|-3-----------------------|-5----------------------|
   L L  R  R R  L R R R    L L  R  R  R L  R  R  R   L L  R  R  R L  R  R R

2 times
G--------16---------------|
D---9---------9----14-----|
A-----14---14---14----14--|
E-7-----------------------|
  L L  R  R R L  R  R  R
===========Band:Dream Theater
Song:Metropolis part I (bass solo) *tap*
Tabbed by: Fernando Saavedra
Email:kokainundvodka@hotmail.com
[ Tab from: http://www.guitartabs.cc/tabs/d/dream_theater/metropolis_part_1_btab.html ]
G:---------11---------------11--------------------
D:-----4-------4-99-----4---------4-99------------
A:-------9----9-----9-----9----9-------9----------  8TH rest
E:---2----------------2---------------------------
     l l r r  r lrr r l l r r  r  l rr r

G:----------12---------------------12-------------
D:-----5----------5-1010------5----------5-1010---   8TH rest
A:-------10----10--------10-----10----10--------10
E:---3----------------------3---------------------
     l l r  r  r  l r r  r  l l r  r  r  l r r  r

G:----------14---------------------14-------------
D:-----7----------7-1212------7----------7-1212---
A:-------12----12--------12-----12----12--------12   no rest
E:---5----------------------5---------------------
     l l r  r  r  l r r  r  l l r  r  r  l r r  r

G:----------16---------------------16-------------
D:-----9----------9-1414------9----------9-1414---
A:-------14----14--------14-----14----14--------14
E:---7----------------------7---------------------
     l l r  r  r  l r r  r  l l r  r  r  l r r  r


l=left hand tapping
r=right hand tapping
Comments