Dream Theater - Learning To Live Chords & Tabs

 

Learning To Live Chords & Tabs

Dream Theater Chords & Tabs

Version: 3 Type: Tab 0 ratings
1 star 2 stars 3 stars 4 stars 5 stars
comments

Learning To Live Tab

   
Band Name- Dream Theater
Song Name-Learning To Live
This Is A Great Song By Dream Theater So Enjoy It.
Any questions or comments email me at scotty_6677@hotmail.com
Gtr I (E A D G B E) - 'Elec.'
Gtr II (E A D G B E) - 'Clean Elec.'
Gtr III (E A D G B E) - 'Acous.'
Gtr IV (E A D G B E) - 'Nylon'
Gtr V (E A D G B E) - 'Elec.'

 Intro
  Q=140
 15/8
  Gtr I
  Wx4
|--------|
|--------|
|--------|
|--------|
|--------|
|--------|


    F#sus2/C#
    E E E E E E E E E E E E E E E   E E E E E E E E E E E E E E E
||--4---4---4---4---4---4---4---4-|---4---4---4---4---4---4---4----||
||o-7---7---7---7---7---7---7---7-|---7---7---7---7---7---7---7---o||
||--6---6---6---6---6---6---6---6-|---6---6---6---6---6---6---6----||
||--4---4---4---4---4---4---4---4-|---4---4---4---4---4---4---4----||
||o-4---4---4---4---4---4---4---4-|---4---4---4---4---4---4---4---o||
||--------------------------------|--------------------------------||


       E5/B F#5  E5   G5    F#5  E5   F#5  E5   G5
 7/4
  Q.   Q.   Q.   Q.   E E   Q.   Q.   Q.   Q.   S S E
|-4-----------------------|---------------------------|
|-7----5--------------3-3-|---------------------3-3-3-|
|-6----4--------------0-0-|---------------------0-0-0-|
|-4----2----4----2----0-0-|-4----2----4----2----0-0-0-|
|-4----2----4----2--------|-4----2----4----2----------|
|-----------2----0----3-3-|-2----0----2----0----3-3-3-|


  N.C.(F#5)           (E5)      (G5)    (F#5)               (E5)      (G5)
          PM|         PM|                       PM|         PM|
  S S E E E E S S E E E E S S E S S E   S S E E E E S S E E E E S S E S S E
|-----------------------------------|--------------------------------------|
|-----------------------------------|--------------------------------------|
|-----------------------------------|--------------------------------------|
|-4-4-4-4-----4-4-4-4----2-2-2-5-5--|-4-4-4-4-----4-4-4-4-----2-2-2-5-5----|
|-----------------------------------|--------------------------------------|
|---------2-2---------0-0---------3-|---------2-2---------0-0-----------3--|


  (C#5)                                 (B5)   (D5)   (E5)
 6/4                               4/4
  S S E E E E S S E E S S E S S E   E E S S E  S S E  S S E
|---------------------------------|-------------------------|
|---------------------------------|-------------------------|
|-6-6-6-6-----6-6-6---6-6-6-------|-6---4-4----7-7----9-9---|
|---------------------------------|-------------------------|
|---------4-4-------4-------4-4-4-|---4-----2/-----5/-----7-|
|---------------------------------|-------------------------|


  (C#5)                                 (B5)   (D5)
 6/4                               3/4
  S S E E E E S S E E S S E S S E   E E S S E  S S E
|---------------------------------|------------------|
|---------------------------------|------------------|
|-6-6-6-6-----6-6-6---6-6-6-------|-6---4-4----7-7---|
|---------------------------------|------------------|
|---------4-4-------4-------4-4-4-|---4-----2/-----5-|
|---------------------------------|------------------|


  E5
 5/8                         4/4
  PM--|   PM--------|   PM--------|   PM----------|
  S S E E E E   S S E E E E   S S E E E S S E S S E
|-------------|-------------|-----------------------|
|-------------|-------------|-----------------------|
|-------------|-------------|-----------------------|
|-------9-----|-------9-----|-------9---------------|
|-7-7-7-7-----|-7-7-7-7-----|-7-7-7-7---------------|
|---------0-0-|---------0-0-|---------0-0-0-0-0-0-0-|


 5/8           3/4
  PM|           PM--------------|
  S S E E E E   S S E S S E S S E
|-------------|-------------------||
|-------------|-------------------||
|-------------|-------------------||
|-------------|-------------------||
|---5-4---3-2-|-----2-----2-----2-||
|-0-----1-----|-0-0-0-0-0-0-0-0-0-||


  N.C.(F#m)
 14/8
  PM------------------------------------------------------|
  E E E E E E E E E E E E E E   E E E E E E E E E E E E E E
|-----------------------------|------------------------------|
|-----------------------------|------------------------------|
|-----------------------------|------------------------------|
|-----4-----4-----4-------4---|-----4-----4-----4-------4----|
|---4-----4-----4---4---4---4-|---4-----4-----4---4---4---4--|
|-2-----0-----7-------5-------|-2-----0-----7-------5--------|


                      E5      N.C.(F#m)
 13/8                        14/8
  PM----------------------------------------------------|
  E E E E E E E E E E E E E   E E E E E E E E E E E E E E
|---------------------------|-----------------------------|
|---------------------------|-----------------------------|
|---------------------------|-----------------------------|
|-----2-----4-----4-----2---|-----4-----4-----4-------4---|
|---2-----4-----4---4-----2-|---4-----4-----4---4---4---4-|
|-0-----2-----4-------0---0-|-2-----0-----7-------5-------|


                      E5      Asus2 Esus2
 13/8                        7/8
  PM----------------------|
  E E E E E E E E E E E E E   E E E E E  E E
|---------------------------|-----------------|
|---------------------------|-----------------|
|---------------------------|-----------11----|
|-----2-----4-----4-----2---|-----9---9----9\-|
|---2-----4-----4---4-----2-|---7---7---------|
|-0-----2-----4-------0---0-|-5---------------|


  F#5      E5     Gsus2
 4/4
  H    +E  Q.     W          +W
|---------------|-3--------|-(3)----||
|---------------|-3--------|-(3)----||
|---------------|-2--------|-(2)----||
|-4----(4)-2----|-0--------|-(0)----||
|-4----(4)-2----|----------|--------||
|-2----(2)-0----|-3--------|-(3)----||


    E5/B
 7/4                   6/4
              >
  a W        +H.        +H     W
|---------------------|-------------|
|-3s5--------(5)------|-(5)---------|
|-2s4--------(4)------|-(4)---------|
|---------------------|-------------|
|---------------------|-------------|
|---------------------|-------------|


   7/4              6/4
    W                W     3x
||-----------------|-------||
||o----------------|------o||
||-----------------|-------||
||-----------------|-------||
||o----------------|------o||
||-----------------|-------||


   Verse
   7/4              6/4
    W                W     4x
||-----------------|-------||
||o----------------|------o||
||-----------------|-------||
||-----------------|-------||
||o----------------|------o||
||-----------------|-------||


  Emadd9
 7/4                  6/4
  Gtr II
   W        +H.        Q  E E +E  E +E  E +E  E  Q
|-!0--------(0)------|------------------0-(0)--------|
|-!0--------(0)------|------------------------0------|
|-!0--------(0)------|------------0-(0)---------(0)--|
|-!4--------(4)------|------4-(4)--------------------|
|-!2--------(2)------|----2--------------------------|
|-!0--------(0)------|-0-----------------------------|


  Cmaj9+11
 7/4                  6/4
   W        +H.        Q  E E +E  E +E  E +E  E  Q
|--------------------|------------------0-(0)--------|
|-^3--------(3)------|------------3-(3)-------3------|
|-^0--------(0)------|------0-(0)---------------(0)--|
|-^4--------(4)------|----4--------------------------|
|-^3--------(3)------|-3-----------------------------|
|--------------------|-------------------------------|


  Amadd9
 7/4                  6/4
  Q  E Q.   W          Q  E E +E  E +E  E +E  E Q
|-----------0--------|------------------0-(0)------|
|-----------1--------|------------1-(1)-------1----|
|------4----4--------|------4-(4)---------------4--|
|----2---------------|----2------------------------|
|-0------------------|-0---------------------------|
|--------------------|-----------------------------|


  Em9
 7/4                   6/4
  Gtr I
  W                      Q.    E   +Q     Q.    E   +Q
|---------------------|-----------------------------------|
|---------------------|-<5>-------------------------------|
|---------------------|-------<5>-(<5>)-------------------|
|---------------------|------------------<4>--------------|
|---------------------|------------------------<5>-(<5>)--|
|---------------------|-----------------------------------|
|
| Gtr II
| Q  E Q.    W          +W.
|-----------^0--------|-(0)-------------------------------|
|-----------^3--------|-(3)-------------------------------|
|-----------^0--------|-(0)-------------------------------|
|------4--------------|-----------------------------------|
|----2----------------|-----------------------------------|
|-0-------------------|-----------------------------------|


  Em9
 7/4                  6/4
   ~~~~~~~~~~~~~~~~~~~~~~~~
   W        +H.        +H.             Q.        E  +Q
|--------------------|----------------14--------15-(15)--|
|--8--------(8)------|-(8)-------------------------------|
|--7--------(7)------|-(7)-------------------------------|
|--------------------|-----------------------------------|
|--------------------|-----------------------------------|
|--------------------|-----------------------------------|
|
|  W        +H.         Q   E E +E  E +E  E +E   E   Q
|-!0--------(0)------|--------------------0-(0)----------|
|-!0--------(0)------|---------------------------0-------|
|-!0--------(0)------|--------------0-(0)-----------(0)--|
|-!4--------(4)------|--------4-(4)----------------------|
|-!2--------(2)------|------2----------------------------|
|-!0--------(0)------|--0--------------------------------|


  Cmaj9+11
 7/4                   6/4
   ~~~~~~~~~~~~~~
   W         +H.        H.             Q.        E  +Q
|---------------------|---------------14--------15-(15)--|
|-13--------(13)------|----------------------------------|
|---------------------|----------------------------------|
|---------------------|----------------------------------|
|---------------------|----------------------------------|
|---------------------|----------------------------------|
|
|  W         +H.        Q   E E +E  E +E  E +E   E   Q
|---------------------|-------------------0-(0)----------|
|-^3---------(3)------|-------------3-(3)--------3-------|
|-^0---------(0)------|-------0-(0)-----------------(0)--|
|-^4---------(4)------|-----4----------------------------|
|-^3---------(3)------|-3--------------------------------|
|---------------------|----------------------------------|


  Amadd9
 7/4                            6/4
               ~~~~~~~~~~~~~~~~~~~~~~~~~~~~~~~~~~~~~
   Q.     E   +Q    +W            H.             H.
|------------------------------|-------------------------------|
|-12-----10--(10)--(10)--------|-13-------------12-------------|
|------------------------------|-------------------------------|
|------------------------------|-------------------------------|
|------------------------------|-------------------------------|
|------------------------------|-------------------------------|
|
|  Q   E  Q.         W            Q   E E +E  E +E  E +E  E Q
|--------------------0---------|--------------------0-(0)------|
|--------------------1---------|--------------1-(1)-------1----|
|---------4----------4---------|--------4-(4)---------------4--|
|------2-----------------------|------2------------------------|
|--0---------------------------|--0----------------------------|
|------------------------------|-------------------------------|


  Em9
 7/4                     6/4
                                     \1/   \1/           \7
        ~~~~~~~~~
  Q.    Q.   +W            H        +E    +E    +Q      +H
|-----------------------|-------------------------------------------||
|-7-----5----(5)--------|-------------------------------------------||
|-----------------------|-<4>------(<4>)-(<4>)-(<4>)---(<4>)--------||
|-----------------------|-------------------------------------------||
|-----------------------|-------------------------------------------||
|-----------------------|-------------------------------------------||
|
| Q   E Q.    W            Q   E E  +E     E    +E   E  +E   E  Q
|------------^0---------|----------------------------0--(0)---------||
|------------^3---------|------------------------------------3------||
|------------^0---------|------------------0----(0)------------(0)--||
|-------4---------------|--------4--(4)-----------------------------||
|-----2-----------------|------2------------------------------------||
|-0---------------------|--0----------------------------------------||


 Chorus
  Q.=120
  Am7             Bm7             Em7
 12/8
  W.              W.              W.                 +W.
|---------------|---------------|------------------|--------|
|---------------|---------------|------------------|--------|
|---------------|---------------|------------------|--------|
|-2-------------|-4-------------|-2----------------|-(2)----|
|-0-------------|-2-------------|-2----------------|-(2)----|
|---------------|---------------|-0----------------|-(0)----|
|
| W.              W.              H.       H.        +W.
|-0-------------|-2-------------|---------^7-------|-(7)----|
|-1-------------|-3-------------|---------^8-------|-(8)----|
|-0-------------|-2-------------|---------^7-------|-(7)----|
|-2-------------|-4-------------|---------^9-------|-(9)----|
|-0-------------|-2-------------|---------^7-------|-(7)----|
|---------------|---------------|------------------|--------|


    Am7             Bm7
    W.              W.
||----------------|---------------|
||o---------------|---------------|
||----------------|---------------|
||--2-------------|-4-------------|
||o-0-------------|-2-------------|
||----------------|---------------|
|
|   W.              W.
||--0-------------|-2-------------|
||o-1-------------|-3-------------|
||--0-------------|-2-------------|
||--2-------------|-4-------------|
||o-0-------------|-2-------------|
||----------------|---------------|


  Em7
 11/8                           12/8
  E  E E +E  E E  E  E E  E  E    E  E E +E  E E E E E E E E
|------------------------------|------------------------------||
|------------------------------|-----------------------------o||
|------------------------------|------------------------------||
|--------------------4-5--4----|-------------------4-5-4------||
|-7----7-(7)---5--7----------5-|--7----7-(7)---5-7-------5---o||
|------------7-----------------|-------------7-------------7--||
|
| H.              Q.     +Q      +W.
|----------------^7------(7)---|-(7)--------------------------||
|----------------^8------(8)---|-(8)-------------------------o||
|----------------^7------(7)---|-(7)--------------------------||
|----------------^9------(9)---|-(9)--------------------------||
|----------------^7------(7)---|-(7)-------------------------o||
|------------------------------|------------------------------||


  Am7             Bm7     B5
                          PM---|
  W.              H.      E  E E q.
|---------------|---------------------||
|---------------|---------------------||
|---------------|----------------4----||
|-2-------------|-4--------------4----||
|-0-------------|-2-------2--2-2-2----||
|---------------|---------------------||
|
| W.              H.      H.
|-0-------------|-2-------------------||
|-1-------------|-3-------------------||
|-0-------------|-2-------------------||
|-2-------------|-4-------------------||
|-0-------------|-2-------------------||
|---------------|---------------------||


    Q=156
    E5    B5   E5         Bb5  E5                  F5
   7/4                        6/4
    Gtr I
    PM--|      PM     PM|      PM----|   PM|     PM
    E E E E Q  E E Q  E E Q    E E E E E E E E E E Q
||---------------------------|-------------------------||
||o--------------------------|---------5--------------o||
||--------4---------------3--|---------4---------------||
||--------4---------------3--|---------2-----------3---||
||o-2-2-2-2----2-2----2-2-1--|-2-2-2-2-2-2-2-2---2-3--o||
||--0-0-0------0-0----0-0----|-0-0-0-0---0-0-0---0-1---||


   Verse
    E5    B5   E5         Bb5  E5                  F5
   7/4                        6/4
    PM--|      PM     PM|      PM----|   PM|     PM
    E E E E Q  E E Q  E E Q    E E E E E E E E E E Q
||---------------------------|-------------------------||
||o--------------------------|---------5--------------o||
||--------4---------------3--|---------4---------------||
||--------4---------------3--|---------2-----------3---||
||o-2-2-2-2----2-2----2-2-1--|-2-2-2-2-2-2-2-2---2-3--o||
||--0-0-0------0-0----0-0----|-0-0-0-0---0-0-0---0-1---||


  E5    B5   E5         Bb5   E5                    F5
 7/4                         6/4
  PM--|      PM     PM--------------|   PM|     PM|
  E E E E Q  E E Q  E E E E   E E E E E E E E E S S Q
|---------------------------|--------------------------|
|---------------------------|---------5----------------|
|-------4-------------------|---------4----------------|
|-------4---------------3-3-|---------2-------------3--|
|-2-2-2-2----2-2----2-2-1-1-|-2-2-2-2-2-2-2-2-------3--|
|-0-0-0------0-0----0-0-----|-0-0-0-0---0-0-0---0-0-1--|


  E5    B5   E5         BbE5                        F5
 7/4                         6/4
  PM--|      PM     PM|   PM--------|   PM|     PM|
  E E E E Q  E E Q  E E E E   E E E E E E E E E S S Q
|---------------------------|--------------------------|
|---------------------------|---------5----------------|
|-------4-------------------|---------4----------------|
|-------4---------------3---|---------2-------------3--|
|-2-2-2-2----2-2----2-2-1-2-|-2-2-2-2-2-2-2-2-------3--|
|-0-0-0------0-0----0-0---0-|-0-0-0-0---0-0-0---0-0-1--|


        B5      G5      B5Bb5        E5                    F5
 7/4                          6/4
  PM--|     PM|     PM|        PM--|     PM--------------|
  E E E E E E E E E E E E Q    E E E E E S S E S S S S S S Q
|----------------------------|--------------------------------|
|----------------------------|-------5------------------------|
|-------4--------------------|-------4------------------------|
|-------4---------------4-3--|-------2---------------------3--|
|-------2-------5-------2-1--|-------2---------------------3--|
|-0-0-0-----0-0-3---0-0------|-0-0-0-----0-0---0-0-0-0-0-0-1--|


  B5    E5                        Bb5  B5    E5                  F5
 7/4                                  6/4
    PM|     PM------------------|        PM|     PM------------|
  E E E E E S S E S S E S S E S S Q    E E E E E S S E S S E S S Q
|------------------------------------|------------------------------|
|------------------------------------|------------------------------|
|-4-------------------------------3--|-4----------------------------|
|-4-------------------------------3--|-4-------------------------3--|
|-2-----2-------------------------1--|-2-----2-------------------3--|
|---0-0-0---0-0---0-0---0-0---0-0----|---0-0-0---0-0---0-0---0-0-1--|


          B5          G5        Bb5                 F5E5
 7/4                                 6/4
  PM----|     PM----|     PM--|       PM    PM    PM  PM--------|
  S S E E E E S S E E E E S S E E E   E E E E E E E E S S E S S E
|-----------------------------------|-----------------------------|
|-----------------------------------|-----------------------------|
|---------4---------------------3-3-|-----------------------------|
|---------4---------------------3-3-|-----------------------------|
|---------2-----------5---------1-1-|---5p4---3p2---3-----2-----2-|
|-3-2-0-0-----3-2-0-0-3---3-2-0-----|-0-----0-----0-1-0-0-0-0-0-0-|


          B5            G5          Bb5                 F5E5
 7/4                                     6/4
  PM----|   PM--------|   PM------|       PM    PM    PM  PM--------|
  S S E E E S S S S E E E S S S S E E E   E E E E E E E E S S E S S E
|---------------------------------------|-----------------------------||
|---------------------------------------|-----------------------------||
|---------4-------------------------3-3-|-----------------------------||
|---------4-------------------------3-3-|-----------------------------||
|---------2-------------5-----------1-1-|---5p4---3p2---3-----2-----2-||
|-3-2-0-0---0-0-3-2-0-0-3-0-0-3-2-0-----|-0-----0-----0-1-0-0-0-0-0-0-||


    Q=146
    N.C.(F#5)           (E5)      (G5)
   7/4
            PM|         PM|
    S S E E E E S S E E E E S S E S S E
||--------------------------------------|
||o-------------------------------------|
||--------------------------------------|
||--4-4-4-4-----4-4-4-4-----2-2-2-5-5---|
||o-------------------------------------|
||----------2-2---------0-0-----------3-|


  (F#5)               (E5)      (G5)
          PM|         PM|
  S S E E E E S S E E E E S S E S S E
|---------------------------------------||
|--------------------------------------o||
|---------------------------------------||
|-4-4-4-4-----4-4-4-4-----2-2-2-5-5-----||
|--------------------------------------o||
|---------2-2---------0-0-----------3---||


   Chorus
    F#7add11
   4/4
    Gtr II
     W              +W
||--^0------------|-(0)----------------------|
||o-^0------------|-(0)----------------------|
||--^3------------|-(3)----------------------|
||--^4------------|-(4)----------------------|
||o-^4------------|-(4)----------------------|
||--^2------------|-(2)----------------------|
|
|   Gtr I
|    H    +Q.   E   +E  E +E  E +E  E E +E
||--------------0-|-(0)----------------------|
||o---------------|-----0-(0)----------------|
||----------------|-----------3-(3)----------|
||---4----(4)-----|-----------------4--------|
||o--4----(4)-----|-------------------4-(4)/-|
||---2----(2)-----|-------------------2-(2)/-|


  Badd11
   W              +W
|-^0------------|-(0)---------------------|
|-^0------------|-(0)---------------------|
|-^8------------|-(8)---------------------|
|-^9------------|-(9)---------------------|
|-^9------------|-(9)---------------------|
|-^7------------|-(7)---------------------|
|
|                                      PM
|  H    +Q.   E   +E  E +E  E +E  E E  E
|-------------0-|-(0)---------------------|
|---------------|-----0-(0)---------------|
|---------------|-----------8-(8)---------|
|--9----(9)-----|-----------------9-------|
|--9----(9)-----|-------------------9-----|
|--7----(7)-----|-------------------7-(0)-|


  Dsus2add6
   W                 +W
|-^0---------------|-(0)---------------|
|-^0---------------|-(0)---------------|
|-^7---------------|-(7)---------------|
|-^7---------------|-(7)---------------|
|-^5---------------|-(5)---------------|
|------------------|-------------------|
|
|    PM  PM  PM  PM      PM  PM  PM  PM
|  E E E E E E E E    E  E E E E E E E
|------------------|-------------------|
|------------------|-------------------|
|--7---7---7---7---|--7----7---7---7---|
|--7---7---7---7---|--7----7---7---7---|
|--5-5-5-5-5-5-5-5-|--5--5-5-5-5-5-5-5-|
|------------------|-------------------|


  1.
  E5              F#sus2/C#
   W              +W
|-^0------------|-(0)---------------------||
|-^0------------|-(0)--------------------o||
|-^9------------|-(9)---------------------||
|-^9------------|-(9)---------------------||
|-^7------------|-(7)--------------------o||
|-^0------------|-(0)---------------------||
|
|                        PM   PM
|  Q  Q  +H        E   E E  E E  E  Q
|-----0--(0)----|--9---9----9----9--9\----||
|-----0--(0)----|--9---9----9----9--9\---o||
|-----9--(9)----|-11--11---11---11-11\----||
|-----9--(9)----|-11--11---11---11-11\----||
|---------------|------------------------o||
|--0------------|--------0----0-----------||


  2.
  E5                  F#sus2/C#
   W              +W
|-^0------------|-(0)----------------------|
|-^0------------|-(0)----------------------|
|-^9------------|-(9)----------------------|
|-^9------------|-(9)----------------------|
|-^7------------|-(7)----------------------|
|-^0------------|-(0)----------------------|
|
|                           PM
|  Q  Q  +H       +E   E  E E  E S  S E  E
|-----0--(0)----|-(0)--9--9----9----9----9-|
|-----0--(0)----|-(0)--9--9----9----9----9-|
|-----9--(9)----|-(9)-11-11---11---11---11-|
|-----9--(9)----|-(9)-11-11---11---11---11-|
|---------------|--------------------------|
|--0------------|-----------0--------------|


  F#5  E5   F#5  E5   G5    F#5  E5   F#5  E5   G5
 7/4
  Gtr I
  Q.   Q.   Q.   Q.   E E   Q.   Q.   Q.   Q.   S S E
|-------------------------|---------------------------||
|---------------------3-3-|---------------------3-3-3-||
|---------------------0-0-|---------------------0-0-0-||
|-4----2----4----2----0-0-|-4----2----4----2----0-0-0-||
|-4----2----4----2--------|-4----2----4----2----------||
|-2----0----2----0----3-3-|-2----0----2----0----3-3-3-||


 Break
  N.C.(F#m)
 14/8
  Gtr III
  E E E E E E E E E E E E E E   E E E E E E E E E E E E E E
|-----------------------------|------------------------------|
|-----7-----7-----7-------7---|-----7-----7-----7-------7----|
|---6-----6-----6---6---6---6-|---6-----6-----6---6---6---6--|
|-4-----------9-------7-------|-4-----------9-------7--------|
|-------7---------------------|-------7----------------------|
|-----------------------------|------------------------------|


                            F#5      E5     Gsus2
 12/8                      4/4
                            Gtr I
  E E E E E E E E E E E E   H    +E  Q.     W
|-------------------------|---------------|-3----||
|-----5-----7-----7-------|---------------|-3----||
|---4-----6-----6---6---4-|---------------|-2----||
|-2-----4-----6-------2---|-4----(4)-2----|-0----||
|-------------------------|-4----(4)-2----|------||
|-------------------------|-2----(2)-0----|-3----||


 Interlude
  F#5   Emadd9                            F#7add11
  Gtr II
                  ~~~~~~~~~~~~~~~
  E E E E +E  E E E   +H     +E  E +Q     E E E E E E E E   E E E E E E Q
|-------------------|------------------|-------2-------0-|-----------------|
|-------------------|------------------|---------0-------|-0-----2---------|
|-----------------0-|-(0)---(0)--------|-----3-----3-----|---3-----3-------|
|-----4---------4---|------------------|---4---------4---|-----4-----4-----|
|---4---------2-----|------------------|-4---------------|-------------4---|
|-2-----0-(0)-------|-----------3-(3)--|-----------------|-----------------|


        Badd11                  A         C#m7
  Gtr II
  Q.    E +H       +W           Q.   E Q  Q    +W
|-0-----0-(0)----|-(0)--------|-0----0----0--|-(0)----||
|-0-----0-(0)----|-(0)--------|-5----4----0--|-(0)----||
|-3-----8-(8)----|-(8)--------|-6----6----6--|-(6)----||
|-4-----9-(9)----|-(9)--------|-7----7----6--|-(6)----||
|-4-----9-(9)----|-(9)--------|-0----0----4--|-(4)----||
|-2-----7-(7)----|-(7)--------|--------------|--------||
|
| Gtr I
| Q   E E +H       +W           Q.   E Q  Q    +W
|----------------|------------|--------------|--------||
|----------------|------------|--------------|--------||
|----------------|------------|-----------6--|-(6)----||
|-4-----9-(9)----|-(9)--------|-7----7----6--|-(6)----||
|-4-----9-(9)----|-(9)--------|-7----7----4--|-(4)----||
|-2-----7-(7)----|-(7)--------|-5----5-------|--------||


  Bsus4add9 C#m7  Asus2     Eadd9/G#  Asus2 Badd4/F#
 6/4
  Gtr II
  E E E E E E E E E E E E   E E E E E E E E E E E E
|-------2-----------------|-------2---------------0-|
|---------2-------------5-|---------5-----------4---|
|-----4---------4-----4---|-----4---------4---4-----|
|---2---------2-----2-----|---2---------2-----------|
|-2---------4-----0-------|-----------0-------------|
|-------------------------|-4---------------2-------|


  Eadd9                  E7sus4                 Am9/E
 2/4       4/4          2/4       4/4          2/4
  E E E E   +W           E E E E   +W           E E E E
|-------0-|-(0)--------|-------0-|-(0)--------|-------0-|
|-------0-|-(0)--------|-------0-|-(0)--------|-------0-|
|-------1-|-(1)--------|-------4-|-(4)--------|-------2-|
|-----4---|------------|-----7---|------------|-----5---|
|---2-----|------------|---5-----|------------|---3-----|
|-0-------|------------|-0-------|------------|-0-------|


               Eadd6                  Eadd9
 4/4          2/4       4/4          2/4          4/4
                                                                   >
  +W           E E E E   +W           E  E  E  E    +W            +W
|-(0)--------|-------0-|-(0)--------|----------0-|--(0)--------|--(0)----||
|-(0)--------|-------0-|-(0)--------|----------0-|--(0)--------|--(0)----||
|-(2)--------|-------6-|-(6)--------|---------13-|-(13)--------|-(13)----||
|------------|-----9---|------------|------16----|-------------|---------||
|------------|---7-----|------------|---14-------|-------------|---------||
|------------|-0-------|------------|-0----------|-------------|---------||


 Guitar Solo
  Q=128
  N.C.
  Gtr IV
         |-3--|     |3|        |--3--|   |-3-|   |-3--|
  Q.   E Q Q  Q   a Q H  +Q   +E  E  E   Q Q Q a Q  Q Q
|--------9-7-10-|-8s9------------------|-7-7-7-6s7------|
|------7--------|-----7--(7)--(7)-9-10-|-----------10-9-|
|---------------|----------------------|----------------|
|---------------|----------------------|----------------|
|---------------|----------------------|----------------|
|---------------|----------------------|----------------|


                               |-3--|             |-3--|   |-3-|   |-3-|
  A Q  +Q    H      Q.   E Q  +E  E E   E E H    +E  E E   Q Q Q A Q Q Q
|-7s9--(9)\-------|--------7--(7)-5-4-|--------------4-5-|-7-7-7-6s7-5-4--|
|-----------------|------5------------|-7-5-5----(5)-----|----------------|
|-----------------|-------------------|------------------|----------------|
|-----------------|-------------------|------------------|----------------|
|-----------------|-------------------|------------------|----------------|
|-----------------|-------------------|------------------|----------------|


                    |-3-|   |3|       |-3-|   |-3-|       |-3--|
  W          Q.   E Q Q Q   Q H  +Q   E E E   Q Q Q a Q  +E  E E
|----------|--------5-4-2-|-------------2-4-|-5-5-5-4s5--(5)-4-2--|
|-7--------|------3-------|-5-3--(3)--5-----|---------------------|
|----------|--------------|-----------------|---------------------|
|----------|--------------|-----------------|---------------------|
|----------|--------------|-----------------|---------------------|
|----------|--------------|-----------------|---------------------|


                    |-3-|
  W          Q.   E Q Q Q   H    +E  E E E   +Q.   S  S  H
|----------|--------4p2---|----------------|------------------|
|-5--------|------------5-|------------5-7-|-(7)---9h10-12----|
|----------|------4-------|-4----(4)-4-----|------------------|
|----------|--------------|----------------|------------------|
|----------|--------------|----------------|------------------|
|----------|--------------|----------------|------------------|


                     |-3--|  |-3--|  |-3--|
   +E   +T   T  T T  E  E E  E  E E  E  E E
|-----------------9-12-10p9-----------------|
|-(12)-(12)----10-----------12-10-9-12-10-9-|
|-----------11------------------------------|
|-------------------------------------------|
|-------------------------------------------|
|-------------------------------------------|
|
|   W
|-------------------------------------------|
|-------------------------------------------|
|-------------------------------------------|
|-------------------------------------------|
|-------------------------------------------|
|-------------------------------------------|


  F#sus4/C#    F#m/C#  F#7sus4/CF#sus2/C#      F#7sus4/C# E5/B  Bsus4add9
   W                     W                      W
|----------------------|---------------------|----------------------|
|----------------------|---------------------|----------------------|
|-11-------------------|---------------------|----------------------|
|----------------------|---------------------|----------------------|
|----------------------|---------------------|----------------------|
|----------------------|---------------------|----------------------|
|
| Gtr II
|  E E  E  E E  E E  E   E  E E  E  E E  E E    E E  E  E E E E E
|-------------------12-|---12----9--9----9---|--------------0---9---|
|-12---12-12---10---12-|---12----9--9----9---|-12---12-12---0---0---|
|-11---11-11---11---11-|---11---11-11---11---|-11---11-11---9---9---|
|-11---11-11---11---11-|---11---11-11---11---|-11---11-11---9---9---|
|----------------------|---------------------|----------------------|
|----------------------|---------------------|----------------------|


               Bsus2/C#   B7sus2/C#
  Gtr II
   ~~~
  +W            E E  E  E E  E E  E
|-(9)--------|-------------------12-|
|-(0)--------|-12---12-12---10---12-|
|-(9)--------|-11---11-11---11---11-|
|-(9)--------|-11---11-11---11---11-|
|------------|----------------------|
|------------|----------------------|


  Bsus2add11F#sus2/C#   B7sus2/C#    E5/B    Bsus4add9
                                              ~~~
  E  E E  E  E E  E E    E E  E  E E E E E   +W
|---12----9--9----9---|--------------0---9-|-(9)----|
|---12----9--9----9---|-12---12-12---0---0-|-(0)----|
|---11---11-11---11---|-11---11-11---9---9-|-(9)----|
|---11---11-11---11---|-11---11-11---9---9-|-(9)----|
|---------------------|--------------------|--------|
|---------------------|--------------------|--------|


  N.C.
  Gtr I
       PM         PM      PM-|          PM-|        PM-|           PM      PM
   E   E   E  E   E   E   S    S  E     S    S  E   S    S  E  E   E   E   E
|--------------------------------|-----------------------------------------|
|-12------12-10------10--------9-|-----------9-----------9-----------------|
|----(11)-------(11)-(11)-(11)---|-(11)-(11)---(11)-(11)---11------11------|
|--------------------------------|----------------------------(11)----(11)-|
|--------------------------------|-----------------------------------------|
|--------------------------------|-----------------------------------------|


       PM-|            PM      PM
                                                    |-3--|
   E   S    S   E  E   E   E   E  E    E  E E  E  E S  S S  E  E
|-----------------------------------|----12------------------------|
|-12-----------12-10------10------9h|=10----9----10-9h10p9---------|
|----(11)-(11)-------(11)----(11)---|---------11-----------11------|
|-----------------------------------|-------------------------11---|
|-----------------------------------|------------------------------|
|-----------------------------------|------------------------------|


  F#sus4/C#    F#m/C#  F#7sus4/CF#sus2/C#
   E E  E  E E  E E  E   E  E E  E  E E  E E
|-------------------12-|---12----9--9----9---|
|-12---12-12---10---12-|---12----9--9----9---|
|-11---11-11---11---11-|---11---11-11---11---|
|-11---11-11---11---11-|---11---11-11---11---|
|----------------------|---------------------|
|----------------------|---------------------|


  F#/C#     E5/B        F#5/C#        E5/B  Bsus4add9
    Q.    A E  E   E  A  Q     +E   A E E S S Q.   +E
|-------------(0)-----------|-----------0-9-9-9----------||
|-(11)------------(0)-------|-------------0-0-0----(0)---||
|--11----11s9---------9s11--|-(11)-11s9---9-9-9----------||
|--11----11s9---------9s11--|-(11)-11s9---9-9-9----(9)\--||
|---------------------------|----------------------------||
|---------------------------|----------------------------||


    Dadd2/F#                Eadd2/G#
    PM                       PM|                       PM|
    E E E E E E E E  4x      S  S S S S S S S S S S S  S  S S S  4x
||--------5----------||-||----------------7-7--------------------||
||o-----5---5-------o||-||o-----------7-7-----7-7---------------o||
||----7-------7---7--||-||--------9-9-------------9-9-------9-9--||
||-------------------||-||---------------------------------------||
||o-9-----------9---o||-||o-11-11---------------------11-11-----o||
||-------------------||-||---------------------------------------||


    Bsus2add4/F#            Esus2             E5
    Gtrs I, II
    E E E E E E E E  4x     E E E E E E E E   E E E E E E E E
||--------0----------||-||--------7---------|-------0----------||
||o---------0-------o||-||o---------7-------|---------0-------o||
||------6-----6---6--||-||------9-----9---9-|-----9-----9---9--||
||----9---------9----||-||----9---------9---|---9---------9----||
||o-9---------------o||-||o-7---------------|-7---------------o||
||-------------------||-||------------------|------------------||


  Dsus2                         N.C.
 6/4
  Gtr I
  E S S E E +E  E E E E E E E    E S S E  E +E    S  S  E  E  E  E  E  E
|---------5-(5)---5-----------|------------------------------------------|
|---------5-(5)---5-----------|------------------------------------------|
|-7-7-7-7-------7---7-7-7-7-7-|-/7-7-7-7-/9-(9)-/11-11-11-11-11-11-11-11-|
|-7-7-7-7-------7---7-7-7-7-7-|------------------------------------------|
|-5-5-5-5-------5---5-5-5-5-5-|-/5-5-5-5-/7-(7)--/9--9--9--9--9--9--9--9-|
|-----------------------------|------------------------------------------|

[ Tab from: http://www.guitartabs.cc/tabs/d/dream_theater/learning_to_live_tab_ver_3.html ]
 4/4
    E  S  S  E   E  +E   S  S  E  E
|------------------------------------|
|------------------------------------|
|-/11-11-11-11-/13-(13)-14-14-14-16\-|
|------------------------------------|
|--/9--9--9--9-/11-(11)-12-12-12-14\-|
|------------------------------------|


  F#sus2
  Gtrs I, II
   Q.    E  +Q    Q     +E   E  +Q    Q   E  E
|--9-----9--(9)---9--|--(9)--9--(9)---9---9--9-|
|--9-----9--(9)---9--|--(9)--9--(9)---9---9--9-|
|-11----11-(11)--11--|-(11)-11-(11)--11--11-11-|
|-11----11-(11)--11--|-(11)-11-(11)--11--11-11-|
|--9-----9--(9)---9--|--(9)--9--(9)---9---9--9-|
|--------------------|-------------------------|


  Gtr V
   |------6-------|  |------6-------|   |-------6-------|  |------6-------|
   S   S  S S  S  S  S  S  S  S  S  S   S   S  S  S  S  S  S  S  S  S  S  S
|--------------------------------------------------------------------------|
|--------------------------------------------------------------------------|
|-----------------------------------------------------------------11-13-14-|
|-----------9-11-12---------11-12-14------------11-12-14-11-12-14----------|
|--9--11-12--------11-12-14-----------11--12-14----------------------------|
|--------------------------------------------------------------------------|
|
| Gtrs I, II
|  Q.                         E        +Q                  Q
|--9-------------------------9--------(9)-----------------9----------------|
|--9-------------------------9--------(9)-----------------9----------------|
|-11------------------------11-------(11)----------------11----------------|
|-11------------------------11-------(11)----------------11----------------|
|--9-------------------------9--------(9)-----------------9----------------|
|--------------------------------------------------------------------------|


   |--3--|  |--3--|  |--3--|  |--3--|
   E  E  E  E  E  E  E  E  E  E  E  E
|----------------------------12-14-16--||
|-------------------12-14-15-----------||
|----------11-13-14--------------------||
|-11-12-14-----------------------------||
|--------------------------------------||
|--------------------------------------||
|
|  W
|--9-----------------------------------||
|--9-----------------------------------||
|-11-----------------------------------||
|-11-----------------------------------||
|--9-----------------------------------||
|--------------------------------------||


 Guitar Solo
  E7sus4   E                      D5/A                D/A
  Gtr V
   ~~~~~~~~~~~~~~~~~~~~~~~~~                           ~~~~~
   H.       Q     +H      H        H         +E   +E   Q
|-17-------16--|-(16)-----------|-16b17=====(16)r(16)-16---|
|--------------|---------17-----|--------------------------|
|--------------|----------------|--------------------------|
|--------------|----------------|--------------------------|
|--------------|----------------|--------------------------|
|--------------|----------------|--------------------------|
|
| Gtr I
|  H.       Q     +H      Q  Q     H.                  E E
|-10-----------|----------------|--------------------------|
|-10--------9--|--(9)-----9--9--|----------------------7-7-|
|--9--------9--|--(9)-----9--9--|----------------------7-7-|
|--9--------9--|--(9)-----9--9--|--7-------------------7-7-|
|--7--------7--|--(7)-----7--7--|--5-----------------------|
|--0-----------|----------------|--5-----------------------|


 ~~~~~~
    |---3----|  |--3--|  |--3--|  |--3--|
   +E   +E   E  E  E  E  E  E  E  E  E  E
|-(16)-(16)-------------------------14-16--|
|-----------------------------17-15--------|
|--------------------------14--------------|
|-----------------16----16-----------------|
|--------------------17--------------------|
|-----------12s14--------------------------|
|
|   ~~~~
|  +W
|------------------------------------------|
|--(7)-------------------------------------|
|--(7)-------------------------------------|
|--(7)-------------------------------------|
|------------------------------------------|
|------------------------------------------|


  Esus4    E
   ~~~~~~~~~~~~~~~~~~~~~~~~~~~~~~~~~
   H.       Q     +Q    Q   +E   Q.
|-17-------16--|-(16)--17--(17)-19----|
|--------------|----------------------|
|--------------|----------------------|
|--------------|----------------------|
|--------------|----------------------|
|--------------|----------------------|
|
|  H.       Q     +H         H
|--------------|----------------------|
|-10--------9--|--(9)--------9--------|
|--9--------9--|--(9)--------9--------|
|--9--------9--|--(9)--------9--------|
|--7--------7--|--(7)--------7--------|
|--0-----------|----------------------|


  D5/A                 D/A
                                    ~~~~~
              |--3---|
   H         +E   E  E  Q          +H       H
|-19b21=====(19)r19p17-19b21====|=(19)r-----------|
|-------------------------------|-----------------|
|-------------------------------|-----------------|
|-------------------------------|-----------------|
|-------------------------------|----------19\----|
|-------------------------------|-----------------|
|
|                             ~~~~~~~~~~
|  H.                   E     E    +H       H
|-------------------------------|-----------------|
|-----------------------7-----7-|--(7)------------|
|-----------------------7-----7-|--(7)------------|
|--7--------------------7-----7-|--(7)------x\----|
|--5----------------------------|-----------x\----|
|--5----------------------------|-----------------|


  B5              Bm
                         ~~~
  H       +E  +E  Q     +H     Q  Q
|---------------------|--------------|
|---------------------|--------------|
|---------------------|--------------|
|-4b6=====(4)r(4)-4---|-(4)----6h=7--|
|---------------------|--------------|
|---------------------|--------------|
|
| H.              E E   +W
|-----------------2-2-|-(2)----------|
|-----------------3-3-|-(3)----------|
|-4---------------4-4-|-(4)----------|
|-4---------------4-4-|-(4)----------|
|-2---------------2-2-|-(2)----------|
|---------------------|--------------|


  C#5
             \0.5/  \0.5/
                                    ~~~~~~~~~~
         |-3-|      |------3------|
  Q     +E  +Q     +E     +S  +S  E Q     +H     +Q.   +E
|---------------------------------------|--------------------|
|---------------------------------------|--------------------|
|---------------------------------------|--------------------|
|-6b7===(6)-(6)----(6)----(6)r(6)p4-6---|-(6)----(6)---(6)/--|
|---------------------------------------|--------------------|
|---------------------------------------|--------------------|
|
| H.                                E E   +W
|---------------------------------------|--------------------|
|---------------------------------------|--------------------|
|-6---------------------------------6-6-|-(6)----------------|
|-6---------------------------------6-6-|-(6)----------------|
|-4---------------------------------4-4-|-(4)----------------|
|---------------------------------------|--------------------|


  D5
                       ~~~~~~~~~~~
                                           |--3--|
   H         +E   +E   Q      +Q.    +E    Q  Q  Q
|--------------------------|--------------17-19-21--|
|-10b12=====(10)r(10)-10---|-(10)---(10)/-----------|
|--------------------------|------------------------|
|--------------------------|------------------------|
|--------------------------|------------------------|
|--------------------------|------------------------|
|
|  H.                  E E    +H           H
|--------------------------|------------------------|
|--------------------------|------------------------|
|--7-------------------7-7-|--(7)----------7--------|
|--7-------------------7-7-|--(7)----------7--------|
|--5-------------------5-5-|--(5)----------5--------|
|--------------------------|------------------------|


  Q.=128
  E5
 12/8
   H.          +Q.    +E   +E   E    W.
|-19b21=======(19)---(19)r(19)p17-|-19-----|
|---------------------------------|--------|
|---------------------------------|--------|
|---------------------------------|--------|
|---------------------------------|--------|
|---------------------------------|--------|
|
|  W.                               +W.
|---------------------------------|--------|
|---------------------------------|--------|
|---------------------------------|--------|
|--2------------------------------|-(2)----|
|--2------------------------------|-(2)----|
|--0------------------------------|-(0)----|


  D5/A                             E5
  Gtr I
  W.              +W.              W.
|---------------|----------------|---------------|
|-3-------------|-(3)------------|---------------|
|-2-------------|-(2)------------|---------------|
|-0-------------|-(0)------------|-2-------------|
|-0-------------|-(0)------------|-2-------------|
|---------------|----------------|-0-------------|


                   D5/A
  +W.              W.              +W.
|----------------|---------------|--------||
|----------------|-3-------------|-(3)----||
|----------------|-2-------------|-(2)----||
|-(2)------------|-0-------------|-(0)----||
|-(2)------------|-0-------------|-(0)----||
|-(0)------------|---------------|--------||


    N.C.(Em)
                                 8/8
    E E E +E  E E E E E E E E  4x E E E +E  E E E E
||-----------------------------||-------------------|
||o---------------------------o||-------------------|
||-----------------------------||-------------------|
||------------------4-5-4------||-----------------4-|
||o-7---7-(7)---5-7-------5---o||-7---7-(7)---5-7---|
||------------7-------------7--||-----------7-------|


 14/8
  E E E +E  E E E E E E E E E E
|---------------------------------|
|---------------------------------|
|---------------------7-----7-----|
|-----------------4-5---5-4---4---|
|-7---7-(7)---5-7-----------------|
|-----------7---------------------|


 12/8                        6/8           14/8
  E E E +E  E E E E E E E E   E E E E E E   E E E E E E E E E E E E E E
|---------------------------|-------------|------------------------------|
|---------------------------|-------------|------------------------------|
|---------------------------|-------------|------------------------------|
|-----------------4-5---4---|-------------|---------------------7-4------|
|-7---7-(7)---5-7-----------|-7-5-------5-|-7---7-5-------7-4-5-----5----|
|-----------7---------7---7-|-----7-5-7---|---------7-3-5-------------7--|


 5/8         9/8                   4/8       9/8
                                               ~~~
  E E E E E   E E E E E E E S S E   E E E E    Q.   H.
|-----------|---------------------|---------|-------------||
|-----------|---------------------|---------|-------------||
|-----------|-------------7-7-7-7-|-4-------|-------------||
|-----------|-5-5-5-4-4-4---------|---5-----|-------------||
|-7-5-7-5---|---------------------|-----7-5-|-[7]---------||
|---------7-|---------------------|---------|-------------||


   5/8       4/8    6/8        4/8
    Wx3       W      Wx3        W
||----------|------|----------|-------||
||o---------|------|----------|------o||
||----------|------|----------|-------||
||----------|------|----------|-------||
||o---------|------|----------|------o||
||----------|------|----------|-------||


 5/8                                 4/8
  Gtr I
  PM----------------------------------------|
  E E E E E   E E E E E   E E E E E   E E E E
|-----------|-----------|-----------|---------|
|-----------|-----------|-----------|---------|
|---9-----7-|---------9-|-----7-----|-----9---|
|-----7-9---|-9-7-9-----|-7-9---9-7-|-9-----7-|
|-7---------|-------7---|-----------|---7-----|
|-----------|-----------|-----------|---------|


 6/8                                       4/8
  PM----------------------------------------------|
  E E E E E E   E E E E E E   E E E E E E   E E E E
|-------------|-------------|-------------|---------|
|-------------|-------------|-------------|---------|
|---7---------|-9-----7-----|-----9-----7-|---------|
|-9---9-7-9---|---7-9---9-7-|-9-----7-9---|-9-7-9---|
|-----------7-|-------------|---7---------|-------7-|
|-------------|-------------|-------------|---------|


 5/8                                 4/8
  PM----------------------------------------|
  E E E E E   E E E E E   E E E E E   E E E E
|-----------|-----------|-----------|---------|
|-----------|-----------|-----------|---------|
|-----------|-----------|-----------|---------|
|-----------|-----------|-----------|---------|
|---7-----5-|---7-----5-|---7-----5-|---7-----|
|-0---5-7---|-0---5-7---|-0---5-7---|-0---5-7-|


 6/8
  E E E E E E   E E E E E E   E E E E E E   E E E E E  E
|-------------|-------------|-------------|--------------||
|-------------|-------------|-------------|-------7-8-10-||
|---5-----5---|---5-----5---|-------------|---7-9--------||
|-----5-7---5-|-----5-7---5-|-7-------5-7s|=9------------||
|-------------|-------------|---0-5-7-----|--------------||
|-8-----------|-8-----------|-------------|--------------||


 Guitar Solo
 12/8
       Gtr V
                                      ~
   Q   E E E E E E E   +E  E E   Q  A E +Q   E A E E E +Q.
|-12\--------------------------|-----------------------------|
|-12\----------7---7b8r(7)-----|-----------------------------|
|----------7-9-------------9-7-|-9---------------------------|
|------7s9---------------------|----7h9-(9)----7s8s7p5-(5)---|
|------------------------------|-----------------------------|
|------------------------------|-----------------------------|


                       ~~~~~~
  +Q   E E E E A E E A E +E  E  E   Q.   +E   E  E  Q.   E  E  E
|---------------------------------|------------------------------|
|--------------6s7---6s7-(7)-8h10-|-8----(8)-10s12-10------12-13-|
|----------7-9--------------------|------------------------------|
|-(5)--7s9------------------------|------------------------------|
|---------------------------------|------------------------------|
|---------------------------------|------------------------------|


   S  S  S  S  S  S  E  E  E  E E  E     +E   E  E
|-15-15-15-15-15-15-15-14-12-14---14b15r(14)-12----|
|-----------------------------------------------15-|
|--------------------------------------------------|
|--------------------------------------------------|
|--------------------------------------------------|
|--------------------------------------------------|


                                    ~~~~~~~~~    ~~
                                                           |-3-|
   E  E E  E   E  E E E   E E E E   Q.   +E  E E Q.   +Q   S S S
|-12------10----------------------|----------------------------7--||
|----12s8----/12------8-----------|----------7-8-7----(7)----8----||
|----------------11s7---/11-----7s|=9----(9)---------------9------||
|---------------------------9s5---|-------------------------------||
|---------------------------------|-------------------------------||
|---------------------------------|-------------------------------||


 5/8                                                  4/8
  Gtr V
                                       >
   ~~~~~~~~~~~~~~~~~~~~~~~~~~~~~~~~~~~~~~~~~~~~~
   Q    +Q.         +Q    +Q.         +Q    +Q.         H
|-12---(12)------|-(12)--(12)------|-(12)--(12)------|------------|
|----------------|-----------------|-----------------|------------|
|----------------|-----------------|-----------------|------------|
|----------------|-----------------|-----------------|------------|
|----------------|-----------------|-----------------|------------|
|----------------|-----------------|-----------------|------------|
|
| Gtr I
|  E E   E   E E     E E   E   E E     E E   E   E E    E E E  E
|----------------|-----------------|-----------------|-10p0-8-----|
|-12p0--10--12p0-|--12p0--10--12p0-|--12p0--10--12p0-|--------10s=|
|----------------|-----------------|-----------------|------------|
|----------------|-----------------|-----------------|------------|
|----------------|-----------------|-----------------|------------|
|----------------|-----------------|-----------------|------------|


 6/8                                         4/8
  Gtr I
   E E E E E E    E E E E E E   E E E E E E   E E E E
|------5-7-----|------5-7-----|-------------|---------|
|-12p0-----5p0-|-12p0-----5p0-|-8p0-7-8p0-7-|-5p0-----|
|--------------|--------------|-------------|-----7---|
|--------------|--------------|-------------|-------7-|
|--------------|--------------|-------------|---------|
|--------------|--------------|-------------|---------|


 5/8                                 4/8
  E E E E E   E E E E E   E E E E E   E E E E
|-----------|-----------|-----------|-7p0-5----|
|-8p0-7-8p0-|-8p0-7-8p0-|-8p0-7-8p0-|-------7s=|
|-----------|-----------|-----------|----------|
|-----------|-----------|-----------|----------|
|-----------|-----------|-----------|----------|
|-----------|-----------|-----------|----------|


 6/8
                                                                ~
  E E E E   E E   E E E E   E E    E E  E  E  E  E   E  E  E  E Q
|---------------|---------------|------------------|---------------||
|-8p0-7-8-/12p0-|-8p0-7-8-/12p0-|-12p0-10-12----10s|=8-------------||
|---------------|---------------|------------11----|---11-11-11-9--||
|---------------|---------------|------------------|---------------||
|---------------|---------------|------------------|---------------||
|---------------|---------------|------------------|---------------||


 Keyboard Solo
  Am7     Bm7           Em7     Csus2add6  Am7     Bm7           Em7     Esus2/B
 12/8
  H.      Q.   +Q   E   H.       H.        H.      Q.   +Q   E   H.      H.
|---------------------|-7------------|---------------------|-7-------7-----|
|-5-------7----(7)----|-8------------|-5-------7----(7)----|-8-------7-----|
|-5-------7----(7)----|-7--------7---|-5-------7----(7)----|-7-------9-----|
|-5-------7----(7)----|-9--------7---|-5-------7----(7)----|-9-------9-----|
|-7-------9----(9)----|-7-------10---|-7-------9----(9)----|-7-------7-----|
|-5-------7----(7)--0-|----------8---|-5-------7----(7)--0-|---------7-----|


  Am7     Bm7           Em7     Csus2add6  Am7     Bm7
  H.      Q.   +Q   E   H.       H.        H.      H.
|---------------------|-7----------------|---------------||
|-5-------7----(7)----|-8----------------|-5-------7-----||
|-5-------7----(7)----|-7--------7-------|-5-------7-----||
|-5-------7----(7)----|-9--------7-------|-5-------7-----||
|-7-------9----(9)----|-7-------10-------|-7-------9-----||
|-5-------7----(7)--0-|----------8-------|-5-------7-----||


  E5
                              9/8
  Gtr V
   ~~~~~~~~~    ~~~~~~~~~       ~~~~~~~~~
   Q.   +E  E E Q.   +E  E E    Q.   +E  E E  E  E E
|----------------------------|-----------------------|
|----------------------------|-----------------------|
|---------------7----(7)-4---|--4----(4)-----------4-|
|-----------4-5------------7-|-----------5-4--5--7---|
|-/7----(7)------------------|-----------------------|
|----------------------------|-----------------------|
|
| Gtr I
|  W.                          +H.           +Q.
|----------------------------|-----------------------|
|----------------------------|-----------------------|
|----------------------------|-----------------------|
|--2-------------------------|-(2)-----------(2)-----|
|--2-------------------------|-(2)-----------(2)-----|
|--0-------------------------|-(0)-----------(0)-----|


  C5                                 G5               A5    F#5
 12/8
  ~~
                                               |-3--|
  Q   E +E  E E A  Q   E +E  E  E    E  E  E E E  E E Q   E +E  E E
|----------------------------------|---------------------------------|
|-------------------------------7--|-8----10---8h10p8s7---------8-7--|
|-5---------7---7s=9---------9-----|---------------------------------|
|-----5-(5)------------5-(5)-------|----------------------9-(9)------|
|----------------------------------|---------------------------------|
|----------------------------------|---------------------------------|
|
| H.              +Q.    +Q     E    H.               Q.     Q.
|----------------------------------|---------------------------------|
|----------------------------------|---------------------------------|
|-5---------------(5)----(5)-------|------------------2--------------|
|-5---------------(5)----(5)-------|-5----------------2--------------|
|-3---------------(3)----(3)---(0)-|-5----------------0------4-------|
|----------------------------------|-3-----------------------2-------|


  E5
                                 9/8
                                         \1/
  Q.   +E  E E  Q.    +E   E  E    Q    +E    +E   E  E  E   E  E
|--------------10----(10)-------|---------------------------------|
|----------7-8------------12-10-|-12---(12)--(12)--------------12-|
|-9----(9)----------------------|-----------------12-11-12--14----|
|-------------------------------|---------------------------------|
|-------------------------------|---------------------------------|
|-------------------------------|---------------------------------|
|
| W.                              +H.                   +Q.
|-------------------------------|---------------------------------|
|-------------------------------|---------------------------------|
|-------------------------------|---------------------------------|
|-2-----------------------------|-(2)-------------------(2)-------|
|-2-----------------------------|-(2)-------------------(2)-------|
|-0-----------------------------|-(0)-------------------(0)-------|


  C5                                                G5                        A5    F#5
 12/8
                                                                               ~~~
   Q    E  +E   E E  E      +E   E  +E   E     E     Q    E      +E   +Q       H.
|-----------------------------14--|-15---17b19==(17)r(17)b19--17----------||
|-13----15---15pb17r(15)---15b17--|---------------------------------------||
|------12-(12)--12-(12)-----------|---------------------------------------||
|---------------------------------|---------------------------------------||
|---------------------------------|---------------------------------------||
|---------------------------------|---------------------------------------||
|
|  H.               +Q.             +Q         E     H.                        Q.   Q.
|-------------------------------------------------|-----------------------||
|-------------------------------------------------|-----------------------||
|--5----------------(5)-------------(5)-----------|------------2----------||
|--5----------------(5)-------------(5)-----------|--5---------2----------||
|--3----------------(3)-------------(3)-------(0)-|--5---------0----4-----||
|-------------------------------------------------|--3--------------2-----||


 Chorus
  A5      Asus2     D/A
  Gtr I
                    ~~~~~~~~~~~~~~~~~~ PM
  H.      H.        H.      +Q.   +Q   E
|---------0-------|----------------------|
|---------0-------|-7-------(7)---(7)----|
|-2-------2-------|-7-------(7)---(7)----|
|-2-------2-------|-7-------(7)---(7)----|
|-0---------------|--------------------0-|
|-----------------|----------------------|


  D/F#                   Csus2G5/D
  H.      +Q.   +Q   E   Q  E +Q.   +H.
|----------------------|-------------------|
|----------------------|-------------------|
|-7-------(7)---(7)--7-|-7--7-(7)---(7)----|
|-4-------(4)---(4)----|-5--5-(5)---(5)----|
|----------------------|-3--5-(5)---(5)----|
|----------------------|-------------------|


  Csus2/G                 D/A
                          ~~~~~~~~~~~~~~~~~~
  H.      +Q.   +E  E E   H.      +Q.   +Q   +E
|-----------------------|-------------------------|
|-----------------------|-7-------(7)---(7)--(7)\-|
|-7-------(7)---(7)-7---|-7-------(7)---(7)--(7)\-|
|-5-------(5)---(5)-----|-7-------(7)---(7)--(7)\-|
|-3-------(3)---(3)-----|-------------------------|
|-3-------(3)---(3)---7-|-------------------------|


  E5                     D         G5/D    D
  H.      +Q.   +Q   E   Q.   +Q   E +Q.   Q.
|----------------------|-------------------------|
|----------------------|-------------------------|
|----------------------|-------------------------|
|-2-------(2)---(2)----|-4----(4)--5-(5)---4-----|
|-2-------(2)---(2)----|-5----(5)--5-(5)---5-----|
|-0-------(0)---(0)--0-|-------------------------|


  A5      Asus2     D/A                    D/F#
                    ~~~~~~~~~~~~~~~~~~ PM
  H.      H.        H.      +Q.   +Q   E   H.      +Q.   +Q   E
|---------0-------|----------------------|----------------------|
|---------0-------|-7-------(7)---(7)----|----------------------|
|-2-------2-------|-7-------(7)---(7)----|-7-------(7)---(7)--7-|
|-2-------2-------|-7-------(7)---(7)----|-4-------(4)---(4)----|
|-0---------------|--------------------0-|----------------------|
|-----------------|----------------------|----------------------|


  Csus2G5/D                 Csus2/G
  Q  E +Q.   +Q.   +Q   E   Q  E +Q.   +H.
|-------------------------|-------------------||
|-------------------------|-------------------||
|-7--7-(7)---(7)---(7)----|-7--7-(7)---(7)----||
|-5--5-(5)---(5)---(5)----|-5--5-(5)---(5)----||
|-3--5-(5)---(5)---(5)--3-|-3-----------------||
|-------------------------|-3-----------------||


                 Breakdown
  D5/A            E5
                                 9/8
  W.              W.              +H.      +Q.
|---------------|---------------|----------------|
|-3-------------|---------------|----------------|
|-2-------------|---------------|----------------|
|-0-------------|-2-------------|-(2)------(2)---|
|-0-------------|-2-------------|-(2)------(2)---|
|---------------|-0-------------|-(0)------(0)---|


 12/8
   >
  +W.              +H.      +Q.   Q.
|----------------|----------------------|
|----------------|----------------------|
|----------------|----------------------|
|-(2)------------|-(2)------(2)---------|
|-(2)------------|-(2)------(2)---------|
|-(0)------------|-(0)------(0)---------|


                9/8         12/8
  W              W           W              W
|--------------|-----------|--------------|------|
|--------------|-----------|--------------|------|
|--------------|-----------|--------------|------|

|--------------|-----------|--------------|------|
|--------------|-----------|--------------|------|
|--------------|-----------|--------------|------|


  (Em)
                       9/8
  Gtr II
           ~~~~~~~~~~~~~~~~~
  Q  E E E E +H.        +H.      +Q.
|---------------------|----------------|
|---------------------|----------------|
|----------0-(0)------|-(0)------(0)---|
|---------------------|----------------|
|------5h7------------|----------------|
|-0--0----------------|----------------|


  Csus2               (G5)
 12/8
                                   \0.5/     \0.5/
            ~~
  Q.   Q.   H.        Q.    Q.    +Q.       +Q.
|-------------------|---------------------------------|
|-------------------|---------------------------------|
|-----------7-------|------<5>---(<5>)-----(<5>)------|
|------5------------|------<5>---(<5>)-----(<5>)------|
|-3-----------------|---------------------------------|
|-------------------|-3-------------------------------|


  (Em)
                       9/8
           ~~~~~~~~~~~~~~~~~
  Q  E E E E +H.        +H.      +Q.
|---------------------|----------------|
|---------------------|----------------|
|----------0-(0)------|-(0)------(0)---|
|---------------------|----------------|
|------5h7------------|----------------|
|-0--0----------------|----------------|


  Csus2               G         A/E  N.C.
 12/8
            ~~
  Q.   Q.   H.        Q.   Q.   Q.   Q.
|-------------------|----------------------||
|-------------------|------0----2----------||
|-----------7-------|------0----2----------||
|------5------------|------0----2----------||
|-3-----------------|----------------------||
|-------------------|-3--------------2-----||


 Outro
  (Em)
  Gtr V
    E    E    E    E   E    E    E   E   E   E   E   E
|-<12>-<12>-<12>-<12>-----------------------------------|
|--------------------<12>-<12>-<12>-<7>-<7>-<7>---------|
|-----------------------------------------------<7>-<7>-|
|-------------------------------------------------------|
|-------------------------------------------------------|
|-------------------------------------------------------|
|
| Gtr II
|                                ~~~~
|   Q         E    E   E    E   +H.
|-------------------------------------------------------|
|-------------------------------------------------------|
|---------------------------0---(0)---------------------|
|-------------------------------------------------------|
|------------------5h==7--------------------------------|
|---0---------0-----------------------------------------|


 9/8
   E   E   E   E  E   E   E E E
|-------------------------------|
|----------------<7>-<7>-<7>0-0-|
|-<5>-<5>-<5>-<5>---------------|
|-------------------------------|
|-------------------------------|
|-------------------------------|
|
|  Q       E   E  E   E   E E E
|-------------------------------|
|-------------------------------|
|---------------------0-------0-|
|-------------------------------|
|--------------5h=7-------5h7---|
|--0-------0--------------------|


  Csus2
 12/8
    E    E    E    E    E    E    E   E   E   E   E   E
|-<12>-<12>-<12>-<12>------------------------------------|
|---------------------<12>-<12>-<12>-<7>-<7>-<7>---------|
|------------------------------------------------<7>-<7>-|
|--------------------------------------------------------|
|--------------------------------------------------------|
|--------------------------------------------------------|
|
|                                 ~~~~
|   Q.             Q.             H.
|--------------------------------------------------------|
|--------------------------------------------------------|
|---------------------------------7----------------------|
|------------------5-------------------------------------|
|---3----------------------------------------------------|
|--------------------------------------------------------|


  G                       A/E         N.C.
   E   E   E   E   E   E   E   E   E   E    E     E
|-----------------------------------------------------|
|-----------------<7>-<7>-<7>-------------------------|
|-<5>-<5>-<5>-<5>-------------<7>-<7>-<7>--<7>---<7>--|
|-----------------------------------------(<7>)-(<7>)-|
|-----------------------------------------------------|
|-----------------------------------------------------|
|
|  Q.          Q.          Q.          Q.
|-----------------------------------------------------|
|--------------0-----------2--------------------------|
|--------------0-----------2--------------------------|
|--------------0-----------2--------------------------|
|-----------------------------------------------------|
|--3-----------------------------------2--------------|


  (Em)
    E    E    E    E   E    E    E   E   E   E   E   E
|-<12>-<12>-<12>-<12>-----------------------------------|
|--------------------<12>-<12>-<12>-<7>-<7>-<7>---------|
|-----------------------------------------------<7>-<7>-|
|-------------------------------------------------------|
|-------------------------------------------------------|
|-------------------------------------------------------|
|
|                                ~~~~
|   Q         E    E   E    E   +H.
|-------------------------------------------------------|
|-------------------------------------------------------|
|---------------------------0---(0)---------------------|
|-------------------------------------------------------|
|------------------5h==7--------------------------------|
|---0---------0-----------------------------------------|


                         (D)
 9/8
   E   E   E   E  E   E   E E E
|-------------------------------|
|----------------<7>-<7>-<7>0-0-|
|-<5>-<5>-<5>-<5>---------------|
|-------------------------------|
|-------------------------------|
|-------------------------------|
|
|  Q       E   E  E   E   E E E
|-------------------------------|
|-------------------------------|
|--------------4p=0-------7---7-|
|--------------2------2---4p0---|
|-------------------------------|
|--0-------0--------------------|


  Csus2
 12/8
    E    E    E    E    E    E    E   E   E   E   E   E
|-<12>-<12>-<12>-<12>------------------------------------|
|---------------------<12>-<12>-<12>-<7>-<7>-<7>---------|
|------------------------------------------------<7>-<7>-|
|--------------------------------------------------------|
|--------------------------------------------------------|
|--------------------------------------------------------|
|
|                                 ~~~~
|   Q.             Q.             H.
|--------------------------------------------------------|
|--------------------------------------------------------|
|---------------------------------7----------------------|
|------------------5-------------------------------------|
|---3----------------------------------------------------|
|--------------------------------------------------------|


  G                       A/E         N.C.
   E   E   E   E   E   E   E   E   E   E    E     E
|-----------------------------------------------------|
|-----------------<7>-<7>-<7>-------------------------|
|-<5>-<5>-<5>-<5>-------------<7>-<7>-<7>--<7>---<7>--|
|-----------------------------------------(<7>)-(<7>)-|
|-----------------------------------------------------|
|-----------------------------------------------------|
|
|  Q.          Q.          Q.          Q.
|-----------------------------------------------------|
|--------------0-----------2--------------------------|
|--------------0-----------2--------------------------|
|--------------0-----------2--------------------------|
|-----------------------------------------------------|
|--3-----------------------------------2--------------|


    E5
    Gtr V
      E    E    E    E    E    E    E   E   E   E   E   E
||--<12>-<12>-<12>-<12>------------------------------------|
||o---------------------<12>-<12>-<12>-<7>-<7>-<7>---------|
||-------------------------------------------------<7>-<7>-|
||---------------------------------------------------------|
||o--------------------------------------------------------|
||---------------------------------------------------------|
|
|   Gtr I
|     W.
||---------------------------------------------------------|
||o--------------------------------------------------------|
||----9----------------------------------------------------|
||----9----------------------------------------------------|
||o---7----------------------------------------------------|
||----0----------------------------------------------------|


 9/8
   E   E   E   E   E   E   E  E E
|---------------------------------|
|-----------------<7>-<7>-<7>-0-0-|
|-<5>-<5>-<5>-<5>-----------------|
|---------------------------------|
|---------------------------------|
|---------------------------------|
|
| +H.                     +Q.
|---------------------------------|
|---------------------------------|
|-(9)---------------------(9)-----|
|-(9)---------------------(9)-----|
|-(7)---------------------(7)-----|
|-(0)---------------------(0)-----|


  C5
 12/8
    E    E    E    E    E    E    E   E   E   E   E   E
|-<12>-<12>-<12>-<12>------------------------------------|
|---------------------<12>-<12>-<12>-<7>-<7>-<7>---------|
|------------------------------------------------<7>-<7>-|
|--------------------------------------------------------|
|--------------------------------------------------------|
|--------------------------------------------------------|
|
|   H.                           +Q.         +Q       E
|--------------------------------------------------------|
|--------------------------------------------------------|
|---5----------------------------(5)---------(5)---------|
|---5----------------------------(5)---------(5)---------|
|---3----------------------------(3)---------(3)------0--|
|--------------------------------------------------------|


  G5                      A5
   E   E   E   E   E   E   E   E   E   E    E     E    6x
|------------------------------------------------------||
|-----------------<7>-<7>-<7>-------------------------o||
|-<5>-<5>-<5>-<5>-------------<7>-<7>-<7>--<7>---<7>---||
|-----------------------------------------(<7>)-(<7>)--||
|-----------------------------------------------------o||
|------------------------------------------------------||
|
|  H.                      Q.          Q.              6x
|------------------------------------------------------||
|--3--------------------------------------------------o||
|--0-----------------------2-----------2---------------||
|--0-----------------------2-----------2---------------||
|--------------------------0-----------0--------------o||
|--3---------------------------------------------------||


Duration Legend
---------------
W - whole; H - half; Q - quarter; E - 8th; S - 16th; T - 32nd; X - 64th; a - acciaccatura
+ - note tied to previous; . - note dotted; .. - note double dotted
Uncapitalized letters represent notes that are staccato (1/2 duration)
Irregular groupings are notated above the duration line
Duration letters will always appear directly above the note/fret number it represents the
duration for.  Duration letters with no fret number below them represent rests.  Multi-
bar rests are notated in the form Wxn, where n is the number of bars to rest for.  Low
melody durations appear below the staff

Tablature Legend
----------------
 h   - hammer-on
 p   - pull-off
 b   - bend
 pb  - pre-bend
 r   - bend release (if no number after the r, then release immediately)
 /\  - slide into or out of (from/to "nowhere")
 s   - legato slide
 S   - shift slide
  - natural harmonic
[n]  - artificial harmonic
n(n) - tapped harmonic
 ~   - vibrato
 tr  - trill
 T   - tap
 TP  - trem. picking
 PM  - palm muting
\n/  - tremolo bar dip; n = amount to dip
 \n  - tremolo bar down
 n/  - tremolo bar up
/n\  - tremolo bar inverted dip
 =   - hold bend; also acts as connecting device for hammers/pulls
 <>  - volume swell (louder/softer)
 x   - on rhythm slash represents muted slash
 o   - on rhythm slash represents single note slash

Misc Legend
-----------
 |  - bar
||  - double bar
||o - repeat start
o|| - repeat end
*|  - double bar (ending)
 :  - bar (freetime)
 $  - Segno
 &  - Coda
Tempo markers -  = BPM(8/16=s8/s16), where s8 = swing 8ths, 
s16 = swing 16ths
Comments