Dream Theater - Kindred Spirits Chords & Tabs

 

Kindred Spirits Chords & Tabs

Dream Theater Chords & Tabs

Version: 1 Type: Tab 0 ratings
1 star 2 stars 3 stars 4 stars 5 stars
comments

Kindred Spirits Tab

By Ignasi Bosch  from Spain
nasinasi@teleline.es
										
Kindred Spirits (LTE)
Guitar:"John Petrucci"                                                                        

tempo= ca130

*beat  v     v     v     v       v     v    v     v       v     v    v    v       v v v v
||----------------------------|-------------------------|----------------------|--3--------|
||----------------------------|-------------------------|----------------------|--3--------|
||*-4:------------------------|--v----------------------|------------v---------|--0--------|
||*-4:-------v-----v-----v----|--3--5-------------v-----|----0-------0-------0-|--0--------|
||-----v--3--5-----------3--5-|--------v----v--3--5-----|-------v--------------|--X--------|
||-----5--------5-----5-------|--------2----5--------1--|-------0-------1------|--3--------|
                                                                                               

     v     v     v     v       v     v    v     v       v     v    v    v       v      v  v  v
|---------------------------|-------------------------|----------------------|------3---------||
|---------------------------|-------------------------|----------------------|------3---------||
|---------------------------|--v----------------------|------------v---------|--v---0--------*||
|----------v-----v-----v----|--5--4-------------v-----|----0-------0---------|--0---0--------*||
|----v--3--5-----------3--5-|--------v----v--3--5-----|-------v--------------|------X---------||
|----5--------5-----5-------|--------2----5--------1--|-------0-------1------|------3---------||
  


   v    v    v    v    v   v   v    v     v    v    v    v   v   v   v   v
|--------------------|------------------|------------------|----------------|
|--v-----------------|------------------|-v-------------v--|-v--------------|
|--5--7-----------v--|-v----------------|-5--7----------5--|(5)-------------|
|--5--7---3-------5--|(5)---------------|-5--7----3-----5--|(5)-------------|
|--3--5---3-------5--|(5)---------------|-3--5----3-----3--|(3)-------------|
|---------1-------3--|(3)---------------|---------1--------|----------------|
    

    v    v    v    v    v   v   v    v     v    v    v    v   v   v   v   v
|---------------------|------------------|------------------|----------------|
|---v-----------------|------------------|-v-------------v--|-v--------------|
|---5--7-----------v--|-v----------------|-5--7----------7--|(7)-------------|
|---5--7---3-------5--|(5)---------------|-5--7----3-----7--|(7)-------------|
|---3--5---3-------5--|(5)---------------|-3--5----3-----5--|(5)-------------|
|----------1-------3--|(3)---------------|---------1--------|----------------|
    

   v     v     v     v       v     v    v     v       v     v    v    v       v v v v
|-------------------------|-------------------------|----------------------|--3--------|
|-------------------------|-------------------------|----------------------|--3--------|
|-------------------------|--v----------------------|------------v---------|--0--------|
|--------v-----v-----v----|--3--5-------------v-----|----0-------0-------0-|--0--------|
|--v--3--5-----------3--5-|--------v----v--3--5-----|-------v--------------|--X--------|
|--5--------5-----5-------|--------2----5--------1--|-------0-------1------|--3--------|
                                                                                               
[ Tab from: http://www.guitartabs.cc/tabs/d/dream_theater/kindred_spirits_tab.html ]
     v     v     v     v       v     v    v     v       v     v    v    v     
|---------------------------|-------------------------|----------------------|
|---------------------------|-------------------------|----------------------|
|---------------------------|--v----------------------|------------v---------|
|----------v-----v-----v----|--5--4-------------v-----|----0-------0---------|
|----v--3--5-----------3--5-|--------v----v--3--5-----|-------v--------------|
|----5--------5-----5-------|--------2----5--------1--|-------0-------1------|
  


     v     v     v     v     v     v       v     v     v     v       v     v     v     v      
|-------------------------------------|----------------------------|-----------------------|
|-------------------------------------|----------------------------|-----------------------|
|-6:----------------------------------|-4:-------------------------|-------------v---------|
|-4:-v-----------v--------5----4------|-4:-v-----------------------|-------------7--5------|
|----3--------------5------------5-v--|----5--------3--v-----------|-------v---------------|
|-------3--------5-----------------3--|-------5--------3-----0-1-2-|(2)-3--4--5------------|
                                                                                               

     v     v     v     v     v     v       v     v     v     v       v     v     v     v      
|-------------------------------------|----------------------------|-----------------------|
|-------------------------------------|----------------------------|-------------v---------|
|-6:----------------------------------|-4:-------------------------|-------------7--5------|
|-4:-v-----------v--------5----4------|-4:-v-----------------------|-----------------------|
|----3--------------5------------5-v--|----5--------3--v-----------|-------v---------------|
|-------3--------5-----------------3--|-------5--------3-----0-1-2-|(2)-3--4--5------------|
                                                                                             

     v     v     v     v         v     v     v      v          v     v     v         
|-----------------------------|---------------------------|----------------------|
|-----------------------------|---------------------------|----------------------|
|-4:--------------------------|---------------------------|-3:-v-----------------|
|-4:-v---------------------3--|(3)--------2--v------v-----|-4:-6--5--------v-----|
|----3--5--------v-----v------|----5-4-v-----5-3----3--5--|-------------8--5--6--|
|----------------3--4--5------|--------5---------5--------|----------------------|
                                                                                             

     v    v    v    v     v     v     v     v        v     v     v     v          v     v     v
|----------------------|--------------------------|--------------------------|---------------------|
|----------------------|--------------------------|--------------------------|---------------------|
|-4:-v-----------------|--------------------------|--------v-----------------|-3:-------v----------|
|-4:-2-----------------|--------v-----v-----------|--------5--4--------------|-4:-v--0--2----------|
|----2---------v-------|--------5--7--5-----------|-----5-----------5-----0--|----2--------0-------|
|----0------4--5-------|(5)--7-----------2-----3--|(3)-----------------------|------------------4--|
                                       

     v    v    v    v     v     v     v     v        v     v     v     v          v     v     v
|----------------------|--------------------------|--------------------------|---------------------|
|----------------------|--------------------------|--------------------------|---------------------|
|-4:-v-----------------|--------------------------|--------v-----------------|-3:-------v----------|
|-4:-2-----------------|--------v-----v-----------|--------5--4--v-----------|-4:-v--0--2----------|
|----2---------v-------|--------5--7--5-----------|-----5--------5--------0--|----2--------0-------|
|----0------4--5-------|(5)--7-----------2-----3--|(3)-----------------------|------------------4--|
     


  ...(KEYBOARD SOLO PART)...
Comments