Dream Theater - Its Raining Chords & Tabs

 

Its Raining Chords & Tabs

Dream Theater Chords & Tabs

Version: 1 Type: Tab 0 ratings
1 star 2 stars 3 stars 4 stars 5 stars
comments

Its Raining Tab

Band- Dream Theater
Song- It's Raining

E||----------------------9--|--11/9/11-------------14/|
B||--9------11/9/11------x--|--x-------------------x--|
G||--x------x------------6--|--8/-6/8--------------11/|
D||--6------8/-6/8----------|-------------------------|
A||-------------------------|-------------------------|
E||-------------------------|-------------------------|


                                                                              
--13----11--9--8---------|---------------------|-----------------------------|
--------x---x--x------9--|--11-----------------|-----------------------------|
--10----8---6--5------x--|--x---------------8--|--10/8/10--------11/10-8--6--|
----------------------6--|--8---------------x--|-----------------------------|
-------------------------|------------------6--|--8/-6/8---------9/-8--6--4--|
-------------------------|---------------------|-----------------------------|


                                                                  
--------------------------------------------|--------------------|
--------------------------------------------|--------------------|
--8-----------------------------------------|------------------6/|
-------6----4h6h4h6h4h6h4h6h4h6h4h6h4h6h4h6h|--6-----------------|
--6----x------------------------------------|--------------------|
-------4------------------------------------|--------------------|


                                                                             
----------------------|-------------------9--|--8r8-------------------------|
-------------------9h-|--7h9h7---------------|------9--8--------------------|
--5------6--8---------|----------------------|------------8--6h8h6/5--8--8--|
----------------------|----------------------|------------------------------|
----------------------|----------------------|------------------------------|
----------------------|----------------------|------------------------------|


                                                        
---------------------------|---------------------------|
---------------------------|---------------------------|
---------------------------|---------------------------|
--6/-4-------8h---6h8h6/4h-|--6~-----------------------|
--------6------------------|-------------4/6/8h9h8h6/4-|
---------------------------|---------------------------|


                                                                      
--------------------------|----------------------|-------------------|
--------------------------|-------------------7r-|--7----------------|
------------------------5r|--5/-6/-8~------------|-------------------|
------------4/6/4-6-------|----------------------|-------------------|
--6-6---------------------|----------------------|-------------------|
--------4-----------------|----------------------|-------------------|


                                                        
---------------------------|---------------------------|
--6r-4--5-----4r-4---------|---------------------------|
-----------6-------5-6-----|-----------------------6h8-|
------------------------6--|--10h-9h8h6-8--------------|
---------------------------|---------------------------|
---------------------------|---------------------------|


                                                                            
--------6--------8----8~-|------------------|--8r-8------------------------|
--7--------7-------------|------------------|--------9--7--6h7h6-----------|
-----8--------8----------|------------------|--------------------8-6h5--6--|
-------------------------|------------------|------------------------------|
-------------------------|------------------|------------------------------|
-------------------------|------------------|------------------------------|


                                                                    
----------------------|--------6--------9----9~-|------------------|
----------------------|--7--------7-------------|------------------|
--8---------------6h8-|-----8--------8----------|------------------|
---------6------------|-------------------------|------------------|
----------------------|-------------------------|------------------|
----------------------|-------------------------|------------------|


                                                                              
----------------------------|----------------------|--------6--------8----8~-|
--16---16---14--13----------|----------------------|--7--------7-------------|
--13---13---13--13---13~----|--------13/-------6h8-|-----8--------8----------|
----------------13----------|----------------------|-------------------------|
----------------------------|----------------------|-------------------------|
----------------------------|----------------------|-------------------------|


                                                                       
------------------------|------------------------|--------------------|
----------13h--14h16/---|--19h--18h16~-----------|--------------------|
------------------------|------------------------|----------------6h8-|
------------------------|------------------------|--------------------|
------------------------|------------------------|--------------------|
------------------------|------------------------|--------------------|


                                                                         
--------6--------9----9~-|--------------------|--------6--------8----8~-|
--7--------7-------------|--------------------|--7--------7-------------|
-----8--------8----------|----------------6h8-|-----8--------8----------|
-------------------------|--------------------|-------------------------|
-------------------------|--------------------|-------------------------|
-------------------------|--------------------|-------------------------|


                                                                    
--------------------|--------6--------9----9~-|--------------------|
--------------------|--7--------7-------------|--------------------|
----------------6h8-|-----8--------8----------|----------------6h8-|
--------------------|-------------------------|--------------------|
--------------------|-------------------------|--------------------|
--------------------|-------------------------|--------------------|


                                                                         
--------6--------8----8~-|--------------------|--------6--------9----9~-|
--7--------7-------------|--------------------|--7--------7-------------|
-----8--------8----------|----------------6h8-|-----8--------8----------|
-------------------------|--------------------|-------------------------|
-------------------------|--------------------|-------------------------|
-------------------------|--------------------|-------------------------|


                                                                   
--------------------|-------9~-----11~-----|----------------------|
--------------------|----------------------|--9~-----11~----------|
----------------6h8-|--8-------------------|-----------------8~---|
--------------------|----------------------|----------------------|
--------------------|----------------------|----------------------|
--------------------|----------------------|----------------------|


                                                                   
------9~-----11~-----|----------------------|--------------9------|
---------------------|--9~-----11~----------|-------9-------------|
---------------------|-----------------8/---|--6------------------|
---------------------|----------------------|---------------------|
---------------------|----------------------|---------------------|
---------------------|----------------------|---------------------|


                                                                          
--9~-------------------|--------------------------|----------------------|
-----------------------|--------------------------|----------------------|
-----------------6h8h6/|--5------6--5-------------|----------------------|
-----------------------|---------------6--4h6h4---|--4/-----3------------|
-----------------------|--------------------------|----------------4/-5--|
-----------------------|--------------------------|----------------------|


                                                            
--6------------------|------------------|------------------|
--6------------------|------------------|------------------|
--8----8-------------|------------------|------------------|
-------8--8----------|------------------|------------------|
----------8----------|------------------|------------------|
----------6----------|------------------|------------------|


                                                                    
-----------6--------6--|----------------------|--------------------|
--------------6-----6--|--9-------9-----------|----------9~--------|
-----------------8-----|--11------11----------|----------11~-------|
--------8--------------|--11------11----------|----------11~-------|
--------6--------------|--9-------9-----------|----------9~--------|
-----------------------|----------------------|--------------------|


                                                               
------------------|----------------------|--6--------6~-------|
------------------|----------9-----9-----|--6--------6~-------|
------------------|----------11----11----|--8--------8~-------|
------------------|----------10----10----|--8--------8~-------|
------------------|----------9-----9-----|--6--------6~-------|
------------------|----------------------|--6--------6~-------|


                                                              
------------------|------------------|-----------6--6--6--6--|
------------------|------------------|-----------6--6--6--6--|
------------------|------------------|-----------8--8--8--8--|
------------------|------------------|-----------------------|
------------------|------------------|--------6--------------|
------------------|------------------|--------6--------------|


                                                                      
--4----4~-----------|------------4--------4--|----------2------------|
--4----4~-----------|---------------4-----4--|---------------2-------|
--6----6~-----------|------------------6-----|--4----4------------4--|
--6----6~-----------|--------6---------------|--4----4---------------|
--4----4~-----------|--------4-4-------------|--2--------------------|
--4----4~-----------|------------------------|--2--------------------|


                                                                
-------------------|---------------------|---------------------|
-------------------|---------------------|---------------------|
--4~---------------|---------3----4------|---------3----4------|
-------------------|--6------------------|--4------------------|
-------------------|---------------------|---------------------|
-------------------|---------------------|---------------------|


                                                                     
-----------------------|----------------------|---------------------|
-----------------------|--9------7----6----6/-|---------------------|
---------3----4----4/6-|--6------6----6----6/-|---------3----4------|
--3--------------------|----------------------|--6------------------|
-----------------------|----------------------|---------------------|
-----------------------|----------------------|---------------------|


                                                      
-----------------------|-----------------------------|
-----------------------|--12-----11--9---------------|
---------3----4----4/9-|------9---------9-----11-----|
--4--------------------|-------------------9------9--|
-----------------------|-----------------------------|
-----------------------|-----------------------------|


                                                                           
--------------------------|-----------------------|-----------------------|
--------------------------|-------7-------7-------|----6---------5-----0--|
--9/-8--------4-----3/-1--|--4---------4-------6--|---------4-------4-----|
--------9/-6--------------|-----------------------|-----------------------|
-----------------7--------|-----------------------|-----------------------|
--------------------------|-----------------------|-----------------------|


                                                         
-------11----11--11--11------|--------------------------|
-------x-----x---x---x---12/-|--9--9--9--9--9--9--9--9--|
-------11----11--11--11--11/-|--8--8--8--8--8--8--8--8--|
--9--------------------------|-----6--6--6--6--6--6--6--|
-----------------------------|--------------------------|
-----------------------------|--------------------------|


                                                            
----------------------------|------------------------------|
--------19--------19--------|----18--------18--19--18------|
--16----------16--------18--|----------18--------------18/-|
----------------------------|------------------------------|
----------------------------|------------------------------|
----------------------------|------------------------------|

[ Tab from: http://www.guitartabs.cc/tabs/d/dream_theater/its_raining_tab.html ]
                                                            
--------19----19--19--19--19/-|--16--16----16----16--16/---|
--------19----19--19--19--19/-|--16--16----14----16--16/---|
--16--------------------------|----------------------------|
------------------------------|----------------------------|
------------------------------|----------------------------|
------------------------------|----------------------------|


                                                                            
------------------------------------|--------------------------------------|
-----------6-------7----------------|-----------6-------9~---9~---9/-------|
--------8---------------------------|--------8-----------------------------|
-----8----------8-------------------|-----8----------8---------------------|
--6---------------------------------|--6-----------------------------------|
------------------------------------|--------------------------------------|


                                           
------------------------------------------|
-------------9--------11----11~-----------|
---------11-------------------------------|
-----11-----------11----------------------|
--9---------------------------------------|
------------------------------------------|


                                                 
------------------------------------------------|
-------------9--------14--13~-----11------------|
---------11---------------------------13--13/---|
-----11-----------11----------------------------|
--9---------------------------------------------|
------------------------------------------------|


                                                                              
------------------------------------|----------------------------------------|
-----------6~------7----------------|-----------6-------9------7h6-----------|
--------8---------------------------|--------8---------------------8~---8/---|
-----8----------8-------------------|-----8----------8-----------------------|
--6---------------------------------|--6-------------------------------------|
------------------------------------|----------------------------------------|


                                                                  
---------------------------------------|-------------------------|
-----------4~------6/--7-6--------6/---|-----------2~------7--6--|
---------------------------------------|-------------------------|
-----6----------6----------------------|-----4----------4--------|
--4-----4------------------------------|--2-----2----------------|
---------------------------------------|-------------------------|


                                                                   
----------------------|---------------------|---------------------|
------4---------------|---------------------|---------------------|
---------6----4----4--|---------3----4------|---------3----4------|
----------------------|--6------------------|--4------------------|
----------------------|---------------------|---------------------|
----------------------|---------------------|---------------------|


                                                                     
-----------------------|----------------------|---------------------|
-----------------------|--9------7----6----6/-|---------------------|
---------3----4----4/6-|--6------6----6----6/-|---------3----4------|
--3--------------------|----------------------|--6------------------|
-----------------------|----------------------|---------------------|
-----------------------|----------------------|---------------------|


                                                                            
---------------------|--------------------------|--------------------------|
---------------------|--------0--------0--------|-----4r-4--0--------------|
---------3----4------|-----4--------3-----1-----|--1-----------4-----3-----|
--4------------------|--2--------2-----------2--|-----------------6-----4--|
---------------------|--------------------------|--------------------------|
---------------------|--------------------------|--------------------------|


                                                            
--------------------7/-9--|--------------------14------14--|
-----7--0--------4--------|--0-----11/-12--14------14------|
--4-----------------------|-----9--------------------------|
-----------4--------------|--------------------------------|
--------------7-----------|--------------------------------|
--------------------------|--------------------------------|


                                                                           
-----------------------|-----------------------|----------------11--------|
-------7-------7-------|----6----0----6-----0--|-------11-------x-----12/-|
--4---------4-------6--|-----------------4-----|-------11-------11----11/-|
-----------------------|-----------------------|--9----------9------------|
-----------------------|-----------------------|--------------------------|
-----------------------|-----------------------|--------------------------|


                                                        
--------------------------|----------------------------|
--9--9----9----9--9-------|--------19--------19--------|
--8--8----6----8--8-------|--16----------16--------18--|
-----6----6----6--6h7-6-6-|----------------------------|
--------------------------|----------------------------|
--------------------------|----------------------------|


                                                              
------------------------------|--------19----19--19--19--19/-|
----18--------18--19--18------|--------19----19--19--19--19/-|
----------18--------------18/-|--16--------------------------|
------------------------------|------------------------------|
------------------------------|------------------------------|
------------------------------|------------------------------|


                                                     
--16--16----16----16--16/---|-----------------------|
--16--16----14----16--16/---|-------7-------7-------|
----------------------------|--4---------4-------6--|
----------------------------|-----------------------|
----------------------------|-----------------------|
----------------------------|-----------------------|


                                                        
----------------------------|-------11-------11--------|
----9-9-9--9-9-9--7-7-7--7--|-------x--------x-----12--|
----8---6--6---6--6---6--6--|-------11-------11----11--|
----------------------------|--9----------9--------9---|
----------------------------|--------------------------|
----------------------------|--------------------------|


                                                       
-------------------------|----------------------------|
--12/-9--9--9----9--9~---|--------19--------19--------|
--11/-8--8--8----8--8~---|--16----------16--------18--|
--9/--6--6--6----6--6~---|----------------------------|
-------------------------|----------------------------|
-------------------------|----------------------------|


                                                            
------------------------------|--------19------19----------|
----18--------18--19--18------|--------19------19--19------|
----------18--------------18/-|--16----16--------------18--|
------------------------------|----------------------------|
------------------------------|----------------------------|
------------------------------|----------------------------|


                                                                           
----------------------------|----------------------|----------------------|
----21~-------21~-------21~-|---------------0------|---------------0------|
----------18~-------18~-----|----------3-----------|----------3-----------|
----------------------------|-------6--------------|-------6--------------|
----------------------------|----------------------|--6-------------------|
----------------------------|--4-------------------|----------------------|


                                                                     
----------------------|----------------------|----------------------|
---------------0------|---------------0------|---------------0------|
----------3-----------|----------3-----------|----------3-----------|
-------4--------------|-------4--------------|-------6--------------|
--2-------------------|----------------------|----------------------|
----------------------|--2-------------------|--4-------------------|


                                                                       
----------------------|----------------------|------------------------|
---------------0------|---------------0------|----------------0----0~-|
----------3-----------|----------3-----------|-----------3------------|
-------6--------------|-------4--------------|--------4---------------|
--6-------------------|--2-------------------|-----2------------------|
----------------------|----------------------|--0---------------------|


                                                            
-----------------------------------|-----------------------|
-----------------------------------|-----------------------|
-----------------------------------|-----------------------|
--4~-------2~----------------------|-----------------4/-7--|
------------------4~---2--0--------|--2~-------------------|
-----------------------------------|-----------0h-2--------|


                                                           
----------------------|-----------------------------------|
----------------------|-----------------------------------|
----------------------|-----------------------------------|
----2--2/-4--4~-------|--4~-------2~----------------------|
----------------------|------------------4~---2--0--------|
----------------------|-----------------------------------|


                                               
-----------------------|----------------------|
-----------------------|----------------------|
-----------------------|----------------------|
-----------------4/-7--|----2--2/-4--4~-------|
--2~-------------------|----------------------|
-----------0h-2--------|----------------------|


                                                                        
|------------0-----------------0-------------|-------------------------|
|---------0-----------0-----0-----------0----|--------0-------------2--|
|*-----2-----------2-----1--------2----------|-----4-------------------|
|*--4-----------2--------------------2-------|--4----------2h-4--4-----|
|--------------------------------------------|-------------------------|
|--------------------------------------------|-------------------------|


                                                              
-----------0------------||-----------------------------------|
--------0---------------||-----------------------------------|
-----4----------4~-----*||-----------------------------------|
--4--------------------*||--4--------2------6----4--2--------|
------------------------||--4--------2------4----2--0--------|
------------------------||--2--------0------4----2--0--------|


                                                
-----------------------|-----------------------|
-----------------------|-----------------------|
--4--------------------|-----------------------|
--4-----------4-----7--|--7/----------4--------|
--2-----------4-----7--|--7/----------4--------|
--2--------0--2--2--5--|--5/-0--0h-2--2--------|


                                                            
-----------------------------------|-----------------------|
-----------------------------------|-----------------------|
-----------------------------------|--4--------------------|
--4--------2------6----4--2--------|--4-----------4-----7--|
--4--------2------4----2--0--------|--2-----------4-----7--|
--2--------0------4----2--0--------|--2--------0--2--2--5--|


                                                            
-----------------------|-----------------------------------|
-----------------------|-----------------------------------|
-----------------------|-----------------------------------|
--7/----------4--------|--4--------2------6----4--2--------|
--7/----------4--------|--4--------2------4----2--0--------|
--5/-0--0h-2--2--------|--2--------0------4----2--0--------|


                                                                      
-----------------------|-----------------------|---------------------|
-----------------------|-----------------------|---------------------|
--4--------------------|-----------------------|---------------------|
--4-----------4-----7--|--7/----------4--------|--4--------2------6--|
--2-----------4-----7--|--7/----------4--------|--4--------2------4--|
--2--------0--2--2--5--|--5/-0--0h-2--2--------|--2--------0------4--|


                                                                 
-------2------------|----------------------|--2--------2--------|
-------2------------|----------------------|--2--------2--------|
-------2------------|----------------------|--4--------4--------|
----4--4------------|----------------------|--4--------4--------|
----2--4------------|----------------------|--2--------2--------|
----2--2------------|----------------------|--2--------2--------|


                                                                              
------------------|--4----------------|------------------|--7----------------|
------------------|--4----------------|------------------|--7----------------|
------------------|--6----------------|------------------|--9----------------|
------------------|--6----------------|------------------|--9----------------|
------------------|--4----------------|------------------|--7----------------|
------------------|--4----------------|------------------|--7----------------|


                    
------------------||
------------------||
------------------||
------------------||
------------------||
------------------||
Comments