Dream Theater - In The Name Of God Chords & Tabs

 

In The Name Of God Chords & Tabs

Dream Theater Chords & Tabs

Version: 1 Type: Tab 0 ratings
1 star 2 stars 3 stars 4 stars 5 stars
comments

In The Name Of God Tab

                              Dream Theater
                        Solo "In the name of god"

d  ---11-8-10-8----8-10-8-------8-------------------------------------------
a  -------------11--------11-10---10-11-10-8-10-11-10-8-7---7-8-7-----------
f  -------------------------------------------------------8-------8-7----7-8
c  -------------------------------------------------------------------10----
g  -------------------------------------------------------------------------
c  -------------------------------------------------------------------------
                                                   Play this x4

d  -15----14----------14-------------17-14-15-------18-15-17-15-------------
a  ----16----16-15-16----16-15-13-15----------16-15-------------16-15-------
f  -------------------------------------------------------------------------
c  -------------------------------------------------------------------------
g  -------------------------------------------------------------------------
c  -------------------------------------------------------------------------
                                                   Play this x3

d  -15----14----------14-------------17-14-15-14-18-17-15-17-18-20-17-18-17-
a  ----16----16-15-16----16-15-13-15----------------------------------------
f  -------------------------------------------------------------------------
c  -------------------------------------------------------------------------
g  -------------------------------------------------------------------------
c  -------------------------------------------------------------------------

[ Tab from: http://www.guitartabs.cc/tabs/d/dream_theater/in_the_name_of_god_tab.html ]
d  -15-14-22----------------------------------------------------------------
a  -------------------------------------------------------------------------
f  -------------------------------------------------------------------------
c  -------------------------------------------------------------------------
g  -------------------------------------------------------------------------
c  -------------------------------------------------------------------------

 
d  -17-18-20-14-15-17-------------------------------------------------------
a  ------------------16-20-21-20-16-15-16-20-21-15-16-20-13-15-16-15-13-11--
f  -------------------------------------------------------------------------
c  -------------------------------------------------------------------------
g  -------------------------------------------------------------------------
c  -------------------------------------------------------------------------


d  -------------------------------------------------------------------------
a  -11-13-15-13-11----------------------------------------------------------
f  ----------------14-12-11----11-12-14-12-11-------------------------------
c  -------------------------13----------------13-12-10----12-13-12-10-------
g  ----------------------------------------------------13-------------13-12-
c  -------------------------------------------------------------------------


d  -------------------------------------------------------------------------
a  ------------------------------------------------------------------13-15--
f  ------------------------------------11-12-14-12-11----11-12-14-15--------
c  ---------------10-12-10----10-12-13----------------13--------------------
g  -10-9-10-12-13----------13-----------------------------------------------
c  -------------------------------------------------------------------------


d  ----------------------14-15-14-------14-15-17-15-14----15-17-18-17-15-14-
a  -13----------13-15-16----------16-15----------------16-------------------
f  ----15-14-15-------------------------------------------------------------
c  -------------------------------------------------------------------------
g  -------------------------------------------------------------------------
c  -------------------------------------------------------------------------


for complaints & comments e-mail me on Papilio_thoas@hotmail.com
Comments