Dream Theater - In The Name Of God Chords & Tabs

 

In The Name Of God Chords & Tabs

Dream Theater Chords & Tabs

Version: 1 Type: Bass Tab 0 ratings
1 star 2 stars 3 stars 4 stars 5 stars
comments

In The Name Of God Bass Tab

Band- Dream Theater
Song- In The Name Of God

Intro (0:30)

G|----------------|---------------------|----------------|--------------------|
D|----------------|-------2-3-5--3-2----|----------------|-------5-6-8--6-5---|
A|--3----/4-3-1-4-|3-----------------4--|--3----/4-3-1-4-|3-------------------|
C|0----0----------|--0--0---------------|0----0----------|--0--0------------0-|


G|-----------------|---------------------|----------------|9-10-12--10-9---6-5----3-1-0-------|
D|-----------------|-------2-3-5--3-2----|----------------|-----------------------------3-2---|
A|3----1-3-4-3-1-4-|3-----------------4--|--3----/4-3-1-4-|---------------------------------4-|
C|---0-------------|--0--0---------------|0----0----------|-----------------------------------|

G|----------------|---------------------|----------------|--------------------|
D|----------------|-------2-3-5--3-2----|----------------|-------5-6-8--6-5---|
A|--3----/4-3-1-4-|3-----------------4--|--3----/4-3-1-4-|3-------------------|
C|0----0----------|--0--0---------------|0----0----------|--0--0------------0-|

G|-----------------|---------------------|----------------|9-10-12--10-9-6--5h6p5-3-1-0-------|
D|-----------------|-------2-3-5--3-2----|----------------|-----------------------------------|
A|3----1-3-4-3-1-4-|3-----------------4--|--3----/4-3-1-4-|-----------------------------4-3-4-|
C|---0-------------|--0--0---------------|0----0----------|-----------------------------------|

(1:06)

G|-----------------------|-------------------|-----------------------|------------------------|
D|-----------------------|-------------------|-----------------------|------------------------|
A|-----------------------|-------------------|-----------------------|------------------------|
C|0-0----0-3-2-1--3-2-1--|0-0----0-10-10-8-8-|0-0----0-3-2-1--3-2-1--|0-0-8-7-6-6-10-10-11-11-|

G|------------------------|-------------------|-----------------------|-------------------------|
D|------------------------|-------------------|-----------------------|-------------------------|
A|------------------------|-------------------|-----------------------|-------------------------|
C|12-0----0-3-2-1--3-2-1--|0-0----0-10-10-8-8-|0-0----0-3-2-1--3-2-1--|0-0-8-7-6-6-10-10-11-11-|


Verse (1:24)

G|-----------------------|-------------------|-----------------------|-----------------------|
D|-----------------------|-------------------|-----------------------|-----------------------|
A|-----------------------|-------------------|-----------------------|-----------------------|
C|0-0----0-3-2-1--3-2-1--|0-0----0-10-10-8-8-|0-0----0-3-2-1--3-2-1--|0-0-8-7-6--10-10-11-11-|

G|------------------------|-------------------|-----------------------|-----------------------|
D|------------------------|-------------------|-----------------------|-----------------------|
A|------------------------|-------------------|-----------------------|-----------------------|
C|12-0----0-3-2-1--3-2-1--|0-0----0-10-10-8-8-|0-0----0-3-2-1--3-2-1--|0-0-8-7-6--10-10-11-11-|


Bridge (1:42)

G|----------------|---------------------|----------------|--------------------|
D|----------------|-------2-3-5--3-2----|----------------|-------5-6-8--6-5---|
A|--3----/4-3-1-4-|3-----------------4--|--3----/4-3-1-4-|3-------------------|
C|0----0----------|--0--0---------------|0----0----------|--0--0------------0-|

G|------------------|---------------------|----------------|9-10-12-10-9-6--5h6p5-3-1-0-------|
D|------------------|-------2-3-5--3-2----|----------------|----------------------------------|
A|3-3---1-3-4-3-1-4-|3-----------------4--|--3----/4-3-1-4-|----------------------------4-3-4-|
C|----0-------------|--0--0---------------|0----0----------|----------------------------------|

Verse (2:00)

G|-----------------------|-------------------|-----------------------|-----------------------|
D|-----------------------|-------------------|-----------------------|-----------------------|
A|-----------------------|-------------------|-----------------------|-----------------------|
C|0-0----0-3-2-1--3-2-1--|0-0----0-10-10-8-8-|0-0----0-3-2-1--3-2-1--|0-0-8-7-6--10-10-11-11-|

G|------------------------|-------------------|-----------------------|------------------------|
D|------------------------|-------------------|-----------------------|------------------------|
A|------------------------|-------------------|-----------------------|------------------------|
C|12-0----0-3-2-1--3-2-1--|0-0----0-10-10-8-8-|0-0----0-3-2-1--3-2-1--|0-0-8-7-6--10-10-11-11-|


Bridge (2:18)

G|----------|----------|----------|----------|----------|----------|-------------|
D|----------|----------|----------|----------|----------|----------|-------------|
A|----------|----------|----------|----------|----------|----------|-------------|
C|5~--------|(5)-------|7~--------|8~--------|1~--------|(1)-------|3~---8-7--8--|


Chorus (2:35)

G|---------------|---------------|---------------|------------------|-
D|---------------|---------------|---------------|------------------|-
A|---------------|---------------|---------------|------------------|-
C|5--5--5-5--5-5-|8--8--8-8--8-8|1--1--1-1--1-1-|/10--10--10-10-8-7|-

G|---------------|---------------|---------------|------------------| x2
D|---------------|---------------|---------------|--------/5--5-5-5-|
A|---------------|---------------|---------------|------------------|
C|5--5--5-5--5-5-|8--8--8-8--8-8|1--1--1-1--1-1-|3--3--3-----------|


Bridge (3:04)

G|----------------|--------5---4-----3-|----------------|--------6---5-----4-| x2
D|6-3-3-3-6-3-3-3-|6-3-3-3---6---6-6---|6-3-3-3-6-3-3-3-|6-3-3-3---6---6-5---|
A|----------------|--------------------|----------------|--------------------|
C|----------------|--------------------|----------------|--------------------|


Verse (3:19)

G|----------------------|-----------------------|--------------------|-----------------------| x2
D|----------------------|-----------------------|--------------------|-----------------------|
A|----------------------|-----------3---2-----1-|--------------------|-----------4---3-----2-|
C|8-5-5-5--5-8-5-5-5--5-|8-5-5-5--5---8---8-8---|8-5-5-5--5-8-5-5--5-|8-5-5-5--5---8---8-7---|

G|----------------------|-----------------------| x3 |----------------------|-----------------------|
D|----------------------|-----------------------|    |----------------------|-----------------------|
A|----------------------|---------------------1-|    |----------------------|---------------3-1-----|
C|3-0-0-0--0-3-0-0-0--0-|3-0-0-0--0-3-0-3-6-7---|    |3-0-0-0--0-3-0-0-0--0-|3-0-0-0--0-3-0-----7-6-|

G|----------------------|-----------------------|----------------------|-----------------------|
D|----------------------|-----------------------|----------------------|-----------------------|
A|----------------------|-----------------------|----------------------|---------------5-3-----|
C|5-2-2-2--2-5-2-2-2--2-|5-2-2-2--2-5-2-8-7-5-7-|5-2-2-2--2-5-2-2-2--2-|5-2-2-2--2-5-2-----8-7-|

G|----------------------|-----------------------|----------------------|-----------------------|
D|----------------------|-----------------------|----------------------|-----------------------|
A|----------------------|-----------------------|----------------------|---------------5-3-----|
C|5-2-2-2--2-5-2-2-2--2-|5-2-2-2--2-5-2-8-7-8-7-|5-2-2-2--2-5-2-2-2--2-|5-2-2-2--2-5-2-----8-7-|


Chorus (4:03)

G|---------------|---------------|---------------|-------------------|-
D|---------------|---------------|---------------|-------------------|-
A|---------------|---------------|---------------|-------------------|-
C|5--5--5-5--5-5-|8--8--8-8--8-8|1--1--1-1--1-1-|/10--10--10-10-8-7-|-

G|---------------|---------------|---------------|------------------| x2
D|---------------|---------------|---------------|--------/5--5-5-5-|
A|---------------|---------------|---------------|------------------|
C|5--5--5-5--5-5-|8--8--8-8--8-8|1--1--1-1--1-1-|3--3--3-----------|


Verse (4:33)

G|--------------------|-------------------|--------------------|-----------------|
D|--------------------|-------------------|--------------------|-----------------|
A|3--3--3-3-3--3--1-3-|4--4--4-4-1-----4--|3--3--3-3-3--3--1-3-|4--4--4-1--------|
C|--------------------|-------------8-----|--------------------|-----------8--7--|

G|------------------|------------------|---------------------|--------------|
D|------------------|------------------|---------------3-----|--------------|
A|------------------|------------------|-----------------4-1-|--------------|
C|5--5-5--5-5--5-5--|4--4-4--4-4--4-4--|2--2-2--2-2--2-------|7~---7-5-4~---|


Chorus (5:02)

G|---------------|---------------|---------------|-------------------|---------------|---------------|
D|---------------|---------------|---------------|-------------------|---------------|---------------|
A|---------------|---------------|---------------|-------------------|---------------|---------------|
C|5--5--5-5--5-5-|8--8--8-8--8-8|1--1--1-1--1-1-|/10--10--10-10-8-7-|5--5--5-5--5-5-|8--8--8-8--8-8|

G|---------------|------------------|---------------|---------------|---------------|-------------------|
D|---------------|--------/5--5-5-5-|---------------|---------------|---------------|-------------------|
A|---------------|------------------|---------------|---------------|---------------|-------------------|
C|1--1--1-1--1-1-|3--3--3-----------|5--5--5-5--5-5-|8--8--8-8--8-8|1--1--1-1--1-1-|/10--10--10-10-8-7-|

G|---------------|---------------|---------------|----------|
D|---------------|---------------|---------------|----------|
A|---------------|---------------|---------------|----------|
C|5--5--5-5--5-5-|8--8--8-8--8-8|1--1--1-1--1-1-|3~--------|


Interlude (5:34)

G|----------------|----------------|----------------|-------------| x8
D|----------------|----------------|----------------|-------------|
A|--3----/4-3-1-4-|3------/4-3-1-4-|3------/4-3-1-4-|3------1--1--|
C|0----0----------|--0--0----------|--0--0----------|--0--0-------|

G|----------------|------------|----------------|-------------| x2
D|----------------|------------|----------------|-------------|
A|--3----/4-3-1-4-|3-----------|--3----/4-3-1-4-|3------1--1--|
C|0----0----------|--0--0-0----|0----0----------|--0--0-------|

G|----------------|----------------|----------------|-------------| x2
D|----------------|----------------|----------------|-------------|
A|--3----/4-3-1-4-|3------/4-3-1-4-|3------/4-3-1-4-|3------1--1--|
C|0----0----------|--0--0----------|--0--0----------|--0--0-------|
[ Tab from: http://www.guitartabs.cc/tabs/d/dream_theater/in_the_name_of_god_btab.html ]
G|----------------|----------------|----------------|--------------0-1-3--| x2
D|----------------|----------------|----------------|-------2-3-2---------|
A|--3----/4-3-1-4-|3------/4-3-1-4-|3------/4-3-1-4-|3--------------------|
C|0----0----------|--0--0----------|--0--0----------|--0--0---------------|


Solo Part (7:35)

G|----------------|----------------|----------------|-------------| x2
D|----------------|----------------|----------------|-------------|
A|--3----/4-3-1-4-|3------/4-3-1-4-|3------/4-3-1-4-|3------1--1--|
C|0----0----------|--0--0----------|--0--0----------|--0--0-------|

G|----------------------1-0-|-3---5-3-6-3-5-3-1-0-3-1-0---|
D|-------------3-2--3-2-----|---6-----------------------3-|
A|3-1-4-3--4-1--------------|-----------------------------|
C|--------------------------|-----------------------------|

G|--------------------------|-------------13-12-10-9-----------------------|
D|-------------3-2--3-2-6-5/|8----10-8-10------------11-10-8----------8-10-|
A|3-1-4-3--4-1--------------|--11----------------------------11-10-11------|
C|--------------------------|----------------------------------------------|

G|----------------------1-0-|-3---5-3-6-3-5-3-1-0-3-1-0---|
D|-------------3-2--3-2-----|---6-----------------------3-|
A|3-1-4-3--3-1--------------|-----------------------------|
C|--------------------------|-----------------------------|

G|--------------------------|-----------------9-10-13-15|
D|-------------3-2--3-2-6-5-|-8----10-8-11-10-----------|
A|3-1-4-3--4-1--------------|---11----------------------|
C|--------------------------|---------------------------|

(8:08)
G|------------|---------|-------------|-----------|
D|------------|---------|-------------|-----------|
A|------------|---------|-------------|-----------|
C|0---0---0---|---0--0--|0--0--0--0---|--7---12--|

G|12-13-12-10-9-6-9-10-9-6-5-3-|5-6-5--------------|12-13-13-10-9-6-9-10-9-6-5-3-|5-6-5-------------|
D|-----------------------------|-------------------|-----------------------------|------------------|
A|-----------------------------|------1~------/4~--|-----------------------------|------4~--1~--/7~-|
C|-----------------------------|----------7~-------|-----------------------------|------------------|

G|--------------------|-------------|-----------|-----------|-------------|-----5-5-5-5-|
D|--------------------|-------------|-----------|-----------|-------------|-------------|
A|4~------------------|-------------|-----------|-----------|-------------|-------------|
C|---10~--7~--1~--0~--|0----0-0-0---|------0----|0--0----0--|--0-0-0------|-0-----------|

G|------------------|----0-------1-0---|0-1-3-0h1p0----------|
D|3---2-------2-----|------2-3-2-----3-|------------3-2------|
A|--4---4-3-4---4-3-|1-3---------------|---------------------|
C|------------------|------------------|----------------0~---|


Guitar Solo (8:36)

G|---5---5--|---6---6--|---5---5--|---6-3-----| x4
D|-----5----|-----5----|-----5----|-------5---|
A|3---------|3---------|3---------|3--------4-|
C|----------|----------|----------|-----------|

G|----5---5--|----6---6--|----5---5--|----6-3-----|
D|--5---5----|--5---5----|--5---5----|--5-----5---|
A|3----------|3----------|3----------|3---------4-|
C|-----------|-----------|-----------|------------|

G|-------------------|-------------------|-------------------|----------------|
D|-------------------|-------------------|-------------------|----------------|
A|1--1-1-1--1-1-1-1--|1--1-1-1--1-1-1-1--|1--1-1-1--1-1-1-1--|1--1-1-1--1-1-1-|
C|-------------------|-------------------|-------------------|----------------|

G|----5-5--5--5--5---5-|----6-6--6--6--6---6--|----5-5--5--5--5---5--|----6-6--6--6-3-------| x2
D|--5--------------5---|--5--------------5----|--5--------------5----|--5--------------5----|
A|3--------------------|3---------------------|3---------------------|3-------------------4-|
C|---------------------|----------------------|----------------------|----------------------|

(9:38)

G|----5---5--|----6---6--|----5---5--|----6-3-----| x2
D|--5---5----|--5---5----|--5---5----|--5-----5---|
A|3----------|3----------|3----------|3---------4-|
C|-----------|-----------|-----------|------------|

G|-------------------|-------------------|-------------------|----------------|----------|
D|-------------------|-------------------|-------------------|----------------|----------|
A|1--1-1-1--1-1-1-1--|1--1-1-1--1-1-1-1--|-------------------|----------------|----------|
C|-------------------|-------------------|7--7-7-7--7-7-7-7--|1--1-1-1--1-1-1-|0~--------|

(10:03)

G|----------|----------|
D|----------|----------|
A|----------|----------|
C|0-0-------|0-0-------|

G|-----------------------|-------------------|-----------------------|-----------------------|
D|-----------------------|-------------------|-----------------------|-----------------------|
A|-----------------------|-------------------|-----------------------|-----------------------|
C|0-0----0-3-2-1--3-2-1--|0-0----0-10-10-8-8-|0-0----0-3-2-1--3-2-1--|0-0-8-7-6--10-10-11-11-|

G|--------------------------|-------------------|-----------------------|-----------------------|
D|--------------------------|-------------------|-----------------------|-----------------------|
A|--------------------------|-------------------|-----------------------|-----------------------|
C|--12-0----0-3-2-1--3-2-1--|0-0----0-10-10-8-8-|0-0----0-3-2-1--3-2-1--|0-0-8-7-6--10-10-11-11-|


Bridge (10:24)

G|----------|----------|----------|----------|----------|----------|----------|----------|
D|----------|----------|----------|----------|----------|----------|----------|----------|
A|----------|----------|----------|----------|----------|----------|----------|----------|
C|5~--------|(5)-------|7~--------|8~--------|1~--------|(1)-------|3~--------|(3)-------|

G|----------|----------|----------|----------|----------|-------------|----------------|
D|----------|----------|----------|----------|----------|-------3-----|----------------|
A|----------|----------|----------|----------|----------|---------4-1-|----------------|
C|5~--------|(5)-------|3~--------|(3)-------|1~--------|(1)----------|7~----7-5-4~----|


Chorus (11:00)

G|---------------|---------------|---------------|-------------------|
D|---------------|---------------|---------------|-------------------|
A|---------------|---------------|---------------|-------------------|
C|5--5--5-5--5-5-|8--8--8-8--8-8|1--1--1-1--1-1-|/10--10--10-10-8-7-|

G|---------------|---------------|---------------|------------------| x2
D|---------------|---------------|---------------|--------/5--5-5-5-|
A|---------------|---------------|---------------|------------------|
C|5--5--5-5--5-5-|8--8--8-8--8-8|1--1--1-1--1-1-|3--3--3-----------|


Outro (11:29)

G|--------------------|------------------|----------------------|------------------------|
D|-----1h3--3-3--3-3--|----/6--6-6--6-6--|--------------------8-|------------------------|
A|--------------------|------------------|----2h4--4-4--4-4-/---|------------------------|
C|5--5----------------|8-----------------|1---------------------|10--10-10--10-3--3-3--3-|

G|--------------------|------------------|--------------------|------------------------|
D|-----1h3--3-3--3-3--|----/6-6h8-6-6--6-|--------------------|------------------------|
A|--------------------|------------------|-----4--------------|------------------------|
C|5--5----------------|8-----------------|1--1----1-1--1-1--1-|10--10-10--10-3--3-3--3-|

G|--------------------|------------------|--------------------|------------------------|
D|-----1h3--3-3--3-3--|----/6--6-6--6-6--|--------------------|------------------------|
A|--------------------|------------------|----2h4--4-4--4-4---|------------------------|
C|5--5----------------|8-----------------|1-------------------|10--10-10--10-3--3-3--3-|

G|--------------------|------------------|--------------------|------------------------|
D|-----1h3--3-3--3-3--|----/6-6h8-6-6--6-|--------------------|------------------------|
A|--------------------|------------------|-----4--------------|------------------------|
C|5--5----------------|8-----------------|1--1----1-1--1-1--1-|10--10-10--10-3--3-3--3-|

(12:28)

G|----------------------|-----------------------5----------|
D|-------3-----3-3-3--3-|---------6---------------8-6--6---|
A|----------------------|--------------------------------6-|
C|5--5-5----5-----------|8--8-8-8----8-8--8-8-8------------|

G|-----------------------------|-----------------------------|
D|-----------------------------|-----------------------------|
A|4--4-4-4-4-------------4-4-4-|--------8--------------------|
C|------------1-1--1-1-1-------|10-10-10-10---10-3-3-3-3-3-3-|

G|----------------------------|-------------------------------|
D|---------3--3---------------|------------/6-----------------|
A|----------------------------|-------------------------------|
C|5--5-5-5------5--5-5-5--5-5-|8-8-8-8-8-8-----8-8-8-8-8-8-8--|

G|----------------------------|-------------|
D|----------------------------|-------------|
A|4--4-4-4--4-4-4--4-4-4--4-4-|-------------|
C|----------------------------|10~----3~----|

(12:58)

G|--------------------------|-----------------------/5--------|
D|--------------------------|--------------------------8-6----|
A|--------------------------|-------------------------------6-|
C|5--5-5-5-5--5-5--5-5-5-5--|8--8-8-8-8--8-8--8-8-8-----------|

G|------------8-8-6-6-5-5-----------------|--------------------|
D|------------------------8-8-6-6-5-5-----|--------------------|
A|4--4-4-4-4--------------------------8-8-|--------------------|
C|----------------------------------------|10~---10~-3~---3--3-|

G|---------------------|------------------5--------|
D|-------3---------3---|-------6------------8-6----|
A|---------------------|-------------------------6-|
C|5--5-5-----5--5------|8--8-8-----8--8-8----------|

G|-------------------------------------|---5-6--8-10-13-15--8--|
D|---------------4-4-4--4-4-4-4-4--4-4-|-----------------------|
A|-------------------------------------|-----------------------|
C|1--1--1-1--1-1-----------------------|10---------------------|

G|-------------------------------|--------------10-12-10-12-10-|
D|------3-3--3h6-3-----/6-/8-6-3-|-----6/8-6--6----------------|
A|-------------------------------|-----------------------------|
C|5--5-------------5-5-----------|8--8-------------------------|

G|-----------------------------------|-------------|
D|-----------------------------------|-------------|
A|---1-------------------------------|-------------|
C|1----8-7-5-3-5-7-8-1-1-1-1-1-1-1-1-|10~----3~----|

G|------------------------|----------------------| fade out
D|-----/3-3-3-3--5p3-3--3-|-----/6-6-6-6--6-6----|
A|------------------------|----------------------|
C|5--5--------------------|8--8------------------|
Comments