Dream Theater - I Walk Beside You Chords & Tabs

 

I Walk Beside You Chords & Tabs

Dream Theater Chords & Tabs

Version: 1 Type: Tab 0 ratings
1 star 2 stars 3 stars 4 stars 5 stars
comments

I Walk Beside You Tab

   
Band- Dream Theater
Song- I'll Walk Beside You

D||--------------------------|--------------------------|
A||--5--5--5--5--5--5--5--5--|--5--4--4--4--4--4--4--4--|
F||--6--6--6--6--6--6--6--6--|--6--6--6--6--6--6--6--6--|
C||--------------------------|--------------------------|
G||--------------------------|--------------------------|
D||--------------------------|--------------------------|



--------------------------|--------------------------|----------4----------4--|
--5--5--5--5--5--5--5--5--|--5--4--4--4--4--4--4--4--|-------2-------2--2-----|
--6--6--6--6--6--6--6--6--|--6--6--6--6--6--6--6--6--|------------------------|
--------------------------|--------------------------|------------------------|
--------------------------|--------------------------|--4---------------------|
--------------------------|--------------------------|------------------------|



----------4----------4--|----------4----------4--|----------4----------4--|
-------2-------2--2-----|-------2-------2--2-----|-------2-------2--2-----|
------------------------|------------------------|------------------------|
----1----------2--------|------------------------|------------------------|
------------------------|--4---------------------|---------------2--------|
------------------------|------------------------|----4-------------------|



----------4----------4--|----------4----------4--|----------4----------4--|
-------2-------2--2-----|-------2-------2--2-----|-------2-------2--2-----|
------------------------|------------------------|------------------------|
------------------------|----1----------2--------|------------------------|
--4---------------------|------------------------|--4---------------------|
------------------------|------------------------|------------------------|



----------4----------4--|--------------------------|--------------------------|
-------2-------2--2-----|--5--5--5--5--5--5--5--5--|--5--4--4--4--4--4--4--4--|
------------------------|--6--6--6--6--6--6--6--6--|--6--6--6--6--6--6--6--6--|
------------------------|--------------------------|--------------------------|
---------------2--------|--------------------------|--------------------------|
----4-------------------|--------------------------|--------------------------|



--------------------------|--------------------------|
--5--5--5--5--5--5--5--5--|--5--4--4--4--4--4--4--4--|
--6--6--6--6--6--6--6--6--|--6--6--6--6--6--6--6--6--|
--------------------------|--------------------------|
--------------------------|--------------------------|
--------------------------|--------------------------|

and so on...


     pre chourus:
--------------------------|--------------------------|
--5--------5--------5-----|--4--------4--------4-----|
--------6--------6--------|--------6--------6--------|
-----7--------7--------7--|-----7--------7--------7--|
--------------------------|--------------------------|
--------------------------|--------------------------|



--------------------------|--------------------------|
--4--------4--------4-----|--5--------5--------5-----|
--------6--------6--------|--------6--------6--------|
-----6--------6--------6--|-----6--------6--------6--|
--------------------------|--------------------------|
--------------------------|--------------------------|



--------------------------|--------------------------|
--5--------5--------5-----|--4--------4--------4-----|
--------6--------6--------|--------4--------4--------|
-----7--------7--------7--|-----6--------6--------6--|
--------------------------|--------------------------|
--------------------------|--------------------------|


                                                       chorus:
--------------------------|--------------------------|----7----5------4----|
--5--------5--------5-----|--7--------7--------7-----|----5----5------5----|
-----4--4-----4--4-----4--|-----4--4-----4--4-----4--|---------------------|
--------------------------|--------------------------|---------------------|
--------------------------|--------------------------|---------------------|
--------------------------|--------------------------|---------------------|



----4----4--4--4--4--4--|-----4-----4-----4-----4--|-----4-----4-----4-----4--|
----5----5--5--5--5--5--|--------------------------|--------------------------|
------------------------|--4-----4-----4-----4-----|--4-----4-----4-----4-----|
------------------------|--------------------------|--------------------------|
------------------------|--------------------------|--------------------------|
------------------------|--------------------------|--------------------------|



----7----5------4----|----4----4--4--4--4--4--|-----4-----4-----4-----4--|
----5----5------5----|----5----5--5--5--5--5--|--------------------------|
---------------------|------------------------|--4-----4-----4-----4-----|
---------------------|------------------------|--------------------------|
---------------------|------------------------|--------------------------|
---------------------|------------------------|--------------------------|



--7----------------|-----4-----4-----4-----4--|-----4-----4-----4-----4--|
--5----------------|--------------------------|--------------------------|
--4----------------|--4-----4-----4-----4-----|--4-----4-----4-----4-----|
-------------------|--------------------------|--------------------------|
-------------------|--------------------------|--------------------------|
-------------------|--------------------------|--------------------------|



-----4-----4-----4-----4--|-----4-----4-----4-----4--|
--------------------------|--------------------------|
--5-----5-----5-----5-----|--5-----5-----5-----5-----|
--------------------------|--------------------------|
--------------------------|--------------------------|
--------------------------|--------------------------|



-----4-----4-----4-----4--|-----4-----4-----4-----4--|
--------------------------|--------------------------|
--6-----6-----6-----6-----|--6-----6-----6-----6-----|
--------------------------|--------------------------|
--------------------------|--------------------------|
--------------------------|--------------------------|



-----4-----4-----4-----4--|-----4-----4-----4-----4--|--4----------------|
--------------------------|--------------------------|--5----------------|
--2-----2-----2-----2-----|--2-----2-----2-----2-----|--6----------------|
--------------------------|--------------------------|-------------------|
--------------------------|--------------------------|-------------------|
--------------------------|--------------------------|-------------------|



------------------|------------------|------------------|
------------------|------------------|------------------|
------------------|------------------|------------------|
------------------|------------------|------------------|
------------------|------------------|------------------|
------------------|------------------|------------------|



--------------------------|--------------------------|
--5--5--5--5--5--5--5--5--|--5--4--4--4--4--4--4--4--|
--6--6--6--6--6--6--6--6--|--6--6--6--6--6--6--6--6--|
--------------------------|--------------------------|
--------------------------|--------------------------|
--------------------------|--------------------------|

and so on:


Pre chorus:
--------------------------|--------------------------|
--5--------5--------5-----|--4--------4--------4-----|
--------6--------6--------|--------6--------6--------|
-----7--------7--------7--|-----7--------7--------7--|
--------------------------|--------------------------|
--------------------------|--------------------------|



--------------------------|--------------------------|
--4--------4--------4-----|--5--------5--------5-----|
--------6--------6--------|--------6--------6--------|
-----6--------6--------6--|-----6--------6--------6--|
--------------------------|--------------------------|
--------------------------|--------------------------|



--------------------------|--------------------------|
--5--------5--------5-----|--4--------4--------4-----|
--------6--------6--------|--------4--------4--------|
-----7--------7--------7--|-----6--------6--------6--|
--------------------------|--------------------------|
--------------------------|--------------------------|


                                                       Chorus:
--------------------------|--------------------------|----7----5------4----|
--5--------5--------5-----|--7--------7--------7-----|----5----5------5----|
-----4--4-----4--4-----4--|-----4--4-----4--4-----4--|---------------------|
--------------------------|--------------------------|---------------------|
--------------------------|--------------------------|---------------------|
--------------------------|--------------------------|---------------------|



----4----4--4--4--4--4--|-----4-----4-----4-----4--|-----4-----4-----4-----4--|
----5----5--5--5--5--5--|--------------------------|--------------------------|
------------------------|--4-----4-----4-----4-----|--4-----4-----4-----4-----|
------------------------|--------------------------|--------------------------|
------------------------|--------------------------|--------------------------|
------------------------|--------------------------|--------------------------|


[ Tab from: http://www.guitartabs.cc/tabs/d/dream_theater/i_walk_beside_you_tab.html ]
----7----5------4----|----4----4--4--4--4--4--|-----4-----4-----4-----4--|
----5----5------5----|----5----5--5--5--5--5--|--------------------------|
---------------------|------------------------|--4-----4-----4-----4-----|
---------------------|------------------------|--------------------------|
---------------------|------------------------|--------------------------|
---------------------|------------------------|--------------------------|



--7----------------|-----4-----4-----4-----4--|-----4-----4-----4-----4--|
--5----------------|--------------------------|--------------------------|
--4----------------|--4-----4-----4-----4-----|--4-----4-----4-----4-----|
-------------------|--------------------------|--------------------------|
-------------------|--------------------------|--------------------------|
-------------------|--------------------------|--------------------------|



-----4-----4-----4-----4--|-----4-----4-----4-----4--|
--------------------------|--------------------------|
--5-----5-----5-----5-----|--5-----5-----5-----5-----|
--------------------------|--------------------------|
--------------------------|--------------------------|
--------------------------|--------------------------|



-----4-----4-----4-----4--|-----4-----4-----4-----4--|
--------------------------|--------------------------|
--6-----6-----6-----6-----|--6-----6-----6-----6-----|
--------------------------|--------------------------|
--------------------------|--------------------------|
--------------------------|--------------------------|



-----4-----4-----4-----4--|-----4-----4-----4-----4--|
--------------------------|--------------------------|
--2-----2-----2-----2-----|--2-----2-----2-----2-----|
--------------------------|--------------------------|
--------------------------|--------------------------|
--------------------------|--------------------------|


  Aadd9                      Aadd9
--------------2-----------|--------------2-----------|
--------4-----------4-----|--------4-----------4-----|
-----------6-----6-----4--|-----------6-----6-----4--|
-----4--------------------|-----4--------------------|
--2-----------------------|--2-----------------------|
--------------------------|--------------------------|


  G6add9                     G6add9
--------------2-----------|--------------2-----------|
-----------2-----2--------|-----------2-----2--------|
--------4-----------4-----|--------4-----------4-----|
-----2-----------------2--|-----2-----------------2--|
--0-----------------------|--0-----------------------|
--------------------------|--------------------------|



--------------------------|--------------------------|
--------4-----7-----4-----|--------4-----7-----4-----|
-----4-----6-----6-----4--|-----4-----6-----6-----4--|
--------------------------|--------------------------|
--------------------------|--------------------------|
--4-----------------------|--4-----------------------|


  Dsus2                      Dsus2
-----0-----0-----0-----0--|-----0-----0--7--0-----0--|
--------7-----7-----7-----|--------7-----------7-----|
--------------------------|--------------------------|
--------------------------|--------------------------|
--------------------------|--------------------------|
--0-----------------------|--0-----------------------|


  Aadd9                      Aadd9
--------------2-----------|--------------2-----------|
--------4-----------4-----|--------4-----------4-----|
-----------6-----6-----4--|-----------6-----6-----4--|
-----4--------------------|-----4--------------------|
--2-----------------------|--2-----------------------|
--------------------------|--------------------------|


  G6add9                     G6add9
--------------2-----------|--------------2-----------|
-----------2-----2--------|-----------2-----2--------|
--------4-----------4-----|--------4-----------4-----|
-----2-----------------2--|-----2-----------------2--|
--0-----------------------|--0-----------------------|
--------------------------|--------------------------|



--------------------------|--------------------------|
--------4-----7-----4-----|--------4-----7-----4-----|
-----4-----6-----6-----4--|-----4-----6-----6-----4--|
--------------------------|--------------------------|
--------------------------|--------------------------|
--4-----------------------|--4-----------------------|



-----0-----0--7--0-----0--|-----0-----0--7--0-----0--|
--7-----7-----------7-----|--7-----7-----------7-----|
--------------------------|--------------------------|
--------------------------|--------------------------|
--------------------------|--------------------------|
--------------------------|--------------------------|



--------------------------|--------------------------|
--------------------------|--------------------------|
--------------------------|--------------------------|
--------------------------|--------------------------|
--0--0--0--0--0--0--0--0--|--0--0--0--0--0--0--0--0--|
--------------------------|--------------------------|



--------------------------|--------------------------|----9----7------6----|
--------------------------|--------------------------|----7----7------7----|
--2--2--2--2--2--2--2--2--|--2--2--2--2--2--2--2--2--|---------------------|
--2--2--2--2--2--2--2--2--|--2--2--2--2--2--2--2--2--|---------------------|
--0--0--0--0--0--0--0--0--|--0--0--0--0--0--0--0--0--|---------------------|
--------------------------|--------------------------|---------------------|



----6----6--6--6--6--6--|-----6-----6-----6-----6--|-----6-----6-----6-----6--|
----7----7--7--7--7--7--|--------------------------|--------------------------|
------------------------|--6-----6-----6-----6-----|--6-----6-----6-----6-----|
------------------------|--------------------------|--------------------------|
------------------------|--------------------------|--------------------------|
------------------------|--------------------------|--------------------------|



----9----7------6----|----6----6--6--6--6--6--|-----6-----6-----6-----6--|
----7----7------7----|----7----7--7--7--7--7--|--------------------------|
---------------------|------------------------|--6-----6-----6-----6-----|
---------------------|------------------------|--------------------------|
---------------------|------------------------|--------------------------|
---------------------|------------------------|--------------------------|



--9----------------|-----6-----6-----6-----6--|-----6-----6-----6-----6--|
--7----------------|--------------------------|--------------------------|
--6----------------|--6-----6-----6-----6-----|--6-----6-----6-----6-----|
-------------------|--------------------------|--------------------------|
-------------------|--------------------------|--------------------------|
-------------------|--------------------------|--------------------------|



-----6-----6-----6-----6--|-----6-----6-----6-----6--|
--------------------------|--------------------------|
--7-----7-----7-----7-----|--7-----7-----7-----7-----|
--------------------------|--------------------------|
--------------------------|--------------------------|
--------------------------|--------------------------|



-----6-----6-----6-----6--|-----6-----6-----6-----6--|
--4-----4-----4-----4-----|--4-----4-----4-----4-----|
--------------------------|--------------------------|
--------------------------|--------------------------|
--------------------------|--------------------------|
--------------------------|--------------------------|



-----6-----6-----6-----6--|-----6-----6-----6-----6--|----------6----------6--|
--0-----0-----0-----0-----|--0-----0-----0-----0-----|-------4-------4--4-----|
--------------------------|--------------------------|------------------------|
--------------------------|--------------------------|------------------------|
--------------------------|--------------------------|--6---------------------|
--------------------------|--------------------------|------------------------|



----------6----------6--|----------6----------6--|----------6----------6--|
-------4-------4--4-----|-------4-------4--4-----|-------4-------4--4-----|
------------------------|------------------------|------------------------|
----3----------4--------|------------------------|------------------------|
------------------------|--6---------------------|---------------4--------|
------------------------|------------------------|----6-------------------|



----------6----------6--|----------6----------6--|----------6----------6--|
-------4-------4--4-----|-------4-------4--4-----|-------4-------4--4-----|
------------------------|------------------------|------------------------|
------------------------|----3----------4--------|------------------------|
--6---------------------|------------------------|--6---------------------|
------------------------|------------------------|------------------------|



----------6----------6--|--6----------------|------------------|
---------------4--4-----|--7----------------|------------------|
-------8----------------|--8----------------|------------------|
------------------------|--8----------------|------------------|
---------------4--------|--6----------------|------------------|
----6-------------------|-------------------|------------------|



------------------|------------------|------------------|------------------|
------------------|------------------|------------------|------------------|
------------------|------------------|------------------|------------------|
------------------|------------------|------------------|------------------|
------------------|------------------|------------------|------------------|
------------------|------------------|------------------|------------------|



------------------|------------------||
------------------|------------------||
------------------|------------------||
------------------|------------------||
------------------|------------------||
------------------|------------------||
Comments