Dream Theater - Home Chords & Tabs

 

Home Chords & Tabs

Dream Theater Chords & Tabs

Version: 1 Type: Bass Tab 0 ratings
1 star 2 stars 3 stars 4 stars 5 stars
comments

Home Bass Tab

   
                                  SCENE 8: HOME
                          As recorded by DREAM THEATER

Words and Music by DREAM THEATER
Transcribed by Joe Britton - Larrylaffer_uk@yahoo.co.uk

Gtr I (B E A D G C) - 

    Q=95
   4/4
    Gtr I
    E E S S S S S S S S S S E   E E S S S S S S S S S S E
||----------------------------|---------------------------|
||o-----7h8---5h7---7h8---5h7-|-----7h8---5h7---7h8---5h7-|
||--0-0-----0-----0-----0-----|-0-0-----0-----0-----0-----|
||----------------------------|---------------------------|
||o---------------------------|---------------------------|
||----------------------------|---------------------------|


                                                      |-3-|
  E E S S S S S S S S S S E   E E S S S S S S S S S S S S S
|---------------------------|--------------------------------|
|-----7h8---5h7---7h8---5h7-|--------------------------------|
|-0-0-----0-----0-----0-----|-0-0-7h8-0-5h7-0-7h8-0-3-3h5p3--|
|---------------------------|--------------------------------|
|---------------------------|--------------------------------|
|---------------------------|--------------------------------|


  E E S S S S S S S S S S E   E E S S S S S S S S S S E
|---------------------------|----------------------------|
|-----7h8---5h7---7h8---5h7-|-----7h8---5h7---7h8---5h7--|
|-0-0-----0-----0-----0-----|-0-0-----0-----0-----0------|
|---------------------------|----------------------------|
|---------------------------|----------------------------|
|---------------------------|----------------------------|


  E E S S S S S S S S S S E   E E S S S  S  S S  S  S S  S  E
|---------------------------|-----------------------------------||
|-----7h8---5h7---7h8---5h7-|-----7h8---11h12---11h12---12p11--o||
|-0-0-----0-----0-----0-----|-0-0-----0-------0-------0---------||
|---------------------------|-----------------------------------||
|---------------------------|----------------------------------o||
|---------------------------|-----------------------------------||


  E E S S S S S S S S S S E   E E S S S S S S S S S S E
|---------------------------|----------------------------|
|---------------------------|----------------------------|
|---------------------------|----------------------------|
|-----5h6---3h5---5h6---3h5-|-----5h6---3h5---5h6---3h5--|
|---------------------------|----------------------------|
|-3-3-----3-----3-----3-----|-3-3-----3-----3-----3------|


                                                      |-3-|
  E E S S S S S S S S S S E   E E S S S S S S S S S S S S S
|---------------------------|--------------------------------|
|---------------------------|--------------------------------|
|---------------------------|--------------------------------|
|-----5h6---3h5---5h6---3h5-|--------------------------------|
|---------------------------|-----5h6---3h5---5h6---1-1h3-1--|
|-3-3-----3-----3-----3-----|-3-3-----3-----3-----3----------|


  E E S S S S S S S S S S E   E E S S S S S S S S S S E
|---------------------------|----------------------------|
|---------------------------|----------------------------|
|---------------------------|----------------------------|
|-----5h6---3h5---5h6---3h5-|-----5h6---3h5---5h6---3h5--|
|---------------------------|----------------------------|
|-3-3-----3-----3-----3-----|-3-3-----3-----3-----3------|


  E E S S S S S S S S S S E   E E S S S S S S S S S S E
|---------------------------|----------------------------|
|---------------------------|----------------------------|
|---------------------------|-----------4-5---4-5---5-4--|
|-----5h6---3h5---5h6---3h5-|-----5-6--------------------|
|---------------------------|----------------------------|
|-3-3-----3-----3-----3-----|-3-3-----3-----3-----3------|


    E S S E S S +S  S S S S S E   E S S E S S +S  S S S S S E
||------------------------------|------------------------------|
||o-------7---------7-----5h7---|-------7---------7-----5h7----|
||--0-0-0---0-0-(0)---0-0-----0-|-0-0-0---0-0-(0)---0-0-----0--|
||------------------------------|------------------------------|
||o-----------------------------|------------------------------|
||------------------------------|------------------------------|


  E S S E S S +S  S S S S S E   E S S E S S +S  S S S S S E
|-----------------------------|-------------------------------||
|-------7---------7-----5h7---|-------5---------5-----3h5----o||
|-0-0-0---0-0-(0)---0-0-----0-|-------------------------------||
|-----------------------------|-3-3-3---3-3-(3)---3-3-----3---||
|-----------------------------|------------------------------o||
|-----------------------------|-------------------------------||


    E E E S S +S  S E E. S
||-------------------------|
||o------------------------|
||-------------------------|
||-------------------------|
||o------------------------|
||--3-3---3-3-(3)-3-3----3-|


  E E E S S +S  S S S S S E   E E E S S +S  S E E. S
|---------------------------|--------------------------|
|---------------------------|--------------------------|
|---------------------------|--------------------------|
|---------------------------|--------------------------|
|-----------------5-6---3-4-|--------------------------|
|-3-3---3-3-(3)-3-----3-----|-3-3---3-3-(3)-3-3----3---|


                  |-3-|
  E E E S S +S  S S S S S S S S  3x
|--------------------------------||-|
|-------------------------------o||-|
|--------------------------------||-|
|-----------------------6-5------||-|
|---------------------3---------o||-|
|-3-3---3-3-(3)-3-3h6-------6-3--||-|


                                      |-3-|
    E E E S S +S  S E E. S   E E Q  E S S S S S S S
||-------------------------|--------------------------|
||o------------------------|--------------------------|
||-------------------------|----------------3---------|
||-------------------------|------------------5-------|
||o------------------------|--------------3-----4-3---|
||--3-3---3-3-(3)-3-3----3-|-3-3------3-6-------------|


                                    |-3-|
  E E E S S +S  S E E. S   E E Q  E S S S S S S S
|------------------------|-------------------------||
|------------------------|------------------------o||
|------------------------|-------------------------||
|------------------------|----------------3--------||
|------------------------|--------------3---5-----o||
|-3-3---3-3-(3)-3-3----3-|-3-3------3-6-------4-3--||


  $
      E E S S S S E E E S S
|-||-------------------------|
|-||o------------------------|
|-||----------7-8-7----------|
|-||--0-0-7-8-------0-0-8-7--|
|-||o------------------------|
|-||-------------------------|


  S E S S S S S E S S S S E   E E S S S S E E E S S
|---------------------------|-----------------------|
|---------------------------|-----------------------|
|---------------------5-7-5-|---------7-8-7---------|
|-5-4-------4-5---5-7-------|-0-0-7-8-------0-0-8-7-|
|-----5-6-5-----5-----------|-----------------------|
|---------------------------|-----------------------|


  S E S S S S S E S S S S E
|------------------------------||
|-----------------------------o||
|---------------------5-7-5----||
|-5-4-------4-5---5-7----------||
|-----5-6-5-----5-------------o||
|------------------------------||


  S S S S S S S S S S S S S S S S   S S S S S S S S S S S S S S S S
|---------------------------------|-----------------------------------|
|---------------------------------|-----------------------------------|
|---------------------------------|-----------------------------7-8---|
|---------------------------------|-----------------------5-7-8-------|
|-3-5-6-3-6-3-5-6-3-6-3-5-6-3-----|-3-5-6-3-6-3-5-6-3-5-6-------------|
|-----------------------------6-3-|-----------------------------------|


  E E S S S S E E E S S   S E S S S S S E S S S S E
|-----------------------|---------------------------|
|-----------------------|---------------------------|
|---------7-8-7---------|---------------------5-7-5-|
|-0-0-7-8-------0-0-8-7-|-5-4-------4-5---5-7-------|
|-----------------------|-----5-6-5-----5-----------|
|-----------------------|---------------------------|


  S S S S S S S S S S S S S S S S
|-----------------------------------|
|-----------------------------------|
|-----------------------------------|
|-----------------------------------|
|-3-5-6-3-6-3-5-6-3-6-3-5-6-3-------|
|-----------------------------6-3---|


                          |----6----|
  S S S S S S S S S S S S S S S S S S
|-------------------------------------|
|-------------------------------------|
|-------------------------------------|
|-----------------------3-5-6-5-3-----|
|-3-5-6-3-6-3-5-6-3-5-6-----------6-3-|
|-------------------------------------|


  Q.   S S +E  S S +Q     Q.   S S +E  S S +Q
|-----------------------|------------------------|
|-----------------------|------------------------|
|-----------------------|------------------------|
|-----------------------|------------------------|
|-4----4-4-(4)-4-4-(4)--|-1----1-1-(1)-1-1-(1)---|
|-----------------------|------------------------|


  S S S S S S S S S S S S S S S S   S S S S S S S S S S S S S S S S
|---------------------------------|---------------------------------|
|---------------------------------|---------------------------------|
|---------------------------------|---------------------------------|
|-3-3-3-3-3-3-3-3-3-3-3-3-3-3-3-3-|---------------------------------|
|---------------------------------|-4-4-4-4-4-4-4-4-4-4-4-4-4-4-4-4-|
|---------------------------------|---------------------------------|


   S S S S S S S S S S S S S S S S   H    H
|----------------------------------|-----------|
|----------------------------------|-----------|
|----------------------------------|-----------|
|-/8-8-8-8-8-8-8-8-8-8-8-8-8-8-8-8-|-6---------|
|----------------------------------|------6----|
|----------------------------------|-----------|


  S S S S S S S S S S S S S S S S   S S S S S S S S S S S S S S S S
|---------------------------------|---------------------------------|
|---------------------------------|---------------------------------|
|---------------------------------|---------------------------------|
|-3-3-3-3-3-3-3-3-3-3-3-3-3-3-3-3-|---------------------------------|
|---------------------------------|-4-4-4-4-4-4-4-4-4-4-4-4-4-4-4-4-|
|---------------------------------|---------------------------------|


   S S S S S S S S S S S S S S S S   H    H
|----------------------------------|-----------|
|----------------------------------|-----------|
|----------------------------------|-----------|
|-/8-8-8-8-8-8-8-8-8-8-8-8-8-8-8-8-|-----------|
|----------------------------------|-----------|
|----------------------------------|-4----3----|


  E. S E S   S  +E   S  S S  S  E   E. S S S   E  +E   S  S S  E.
|---------------------------------|-------------------------------|
|---------------------------------|-------------------------------|
|----------/10-(10)-10-10-8-10-10-|----------/10-(10)-10-10-8-10--|
|-3--3-3-3------------------------|-3--3-3-3----------------------|
|---------------------------------|-------------------------------|
|---------------------------------|-------------------------------|


  E. S E E +E  S S E E    E. S E E +E  S S S S E
|-----------------------|------------------------|
|-----------------------|------------------------|
|-----------------------|------------------------|
|-----------------------|------------------------|
|-5--5-5-5-(5)-5-5-5-5\-|-4--4-4-4-(4)-4-4-4-4-4-|
|-----------------------|------------------------|


  E. S S S E +E  S S S S E    E. S S S E +E  S S S S E
|---------------------------|---------------------------|
|---------------------------|---------------------------|
|---------------------------|---------------------------|
|-8--8-8-8-8-(8)-8-8-8-8-8--|---------------------------|
|---------------------------|-9--9-9-9-9-(9)-9-9-9-9-9--|
|---------------------------|---------------------------|


                     To Coda
  E. S S S E +E  S S S S E    Q  Q  Q  Q
|---------------------------|-------------|
|---------------------------|-------------|
|---------------------------|-------------|
|---------------------------|-------3--3--|
|-6--6-6-6-6-(6)-6-6-6-6-6--|-3--3--------|
|---------------------------|-------------|


                                                  |-3-| |-3-|
  S S S S E S S S S S S S S S S   S S S S S S S S E E E E E E
|-------------------------------|-----------------------------|
|-------------------------------|-----------------------------|
|-------------------------------|-----------------------------|
|-------------------------------|-----------------------------|
|-----------------------3-----3-|-----------------------------|
|-3-3-3-----3-3-3-3-6-3---3-6---|-3-3-3-3-3---1-1-1-1-1-1-1-1-|


  S S S S E S S S S S S S S S S   S S S S S S S S S S S S S S S S
|-------------------------------|----------------------------------|
|-------------------------------|----------------------------------|
|-------------------------------|----------------------------------|
|-------------------------------|---------------------3------------|
|-------------------------------|-------------------3-----3-----3--|
|-3-3-3-----3-3-3-3-5-3-6-3-5-6-|-3-3-3-3-3---1-1-1-----3---3-6----|


    E E S S S S S S S S S S E   E E S S S S S S S S S S E
||----------------------------|---------------------------|
||o-----7h8---5h7---7h8---5h7-|-----7h8---5h7---7h8---5h7-|
||--0-0-----0-----0-----0-----|-0-0-----0-----0-----0-----|
||----------------------------|---------------------------|
||o---------------------------|---------------------------|
||----------------------------|---------------------------|


  E E S S S S S S S S S S E   S S S S S S S S +E  S S S S E
|---------------------------|---------------------------------||
|-----7h8---5h7---7h8---5h7-|-------------------------3h5----o||
|-0-0-----0-----0-----0-----|---------------------------------||
|---------------------------|-3-3-3-3-3-3-3-3-(3)-3-3-----3---||
|---------------------------|--------------------------------o||
|---------------------------|---------------------------------||


    E E S S S S S S S S S S E   E E S S S S S S S S S S E
||----------------------------|---------------------------|
||o-----7h8---5h7---7h8---5h7-|-----7h8---5h7---7h8---5h7-|
||--0-0-----0-----0-----0-----|-0-0-----0-----0-----0-----|
||----------------------------|---------------------------|
||o---------------------------|---------------------------|
||----------------------------|---------------------------|


                                                      |-3-|
  E E S S S S S S S S S S E   E E S S S S S S S S S S S S S
|---------------------------|--------------------------------|
|-----7h8---5h7---7h8---5h7-|--------------------------------|
|-0-0-----0-----0-----0-----|-0-0-7h8-0-5h7-0-7h8-0-3-3h5p3--|
|---------------------------|--------------------------------|
|---------------------------|--------------------------------|
|---------------------------|--------------------------------|


  E E S S S S S S S S S S E   E E S S S S S S S S S S E
|---------------------------|----------------------------|
|-----7h8---5h7---7h8---5h7-|-----7h8---5h7---7h8---5h7--|
|-0-0-----0-----0-----0-----|-0-0-----0-----0-----0------|
|---------------------------|----------------------------|
|---------------------------|----------------------------|
|---------------------------|----------------------------|


                                                  D.S. al Coda
  E E S S S S S S S S S S E   E E S S S  S  S S  S  S S  S  E
|---------------------------|-----------------------------------||
|-----7h8---5h7---7h8---5h7-|-----7h8---11h12---11h12---12p11--o||
|-0-0-----0-----0-----0-----|-0-0-----0-------0-------0---------||
|---------------------------|-----------------------------------||
|---------------------------|----------------------------------o||
|---------------------------|-----------------------------------||


  &
  H    H        E. S +S  S E +E  S S S E. 24x     E. S +S  S E +E  S S S E.   8x
|-----------||-----------------------------||-||------------------------------||
|-----------||o------------7-(7)-----5h7--o||-||o----------------------------o||
|-----------||--0--0-(0)-0-------0-0-------||-||------------------------------||
|-----------||-----------------------------||-||-------------5-(5)-----3h5----||
|-3---------||o---------------------------o||-||o----------------------------o||
|------5----||-----------------------------||-||--3--3-(3)-3-------3-3--------||


    E S S S S S S S S S S S S S S   E S S S S S S S S S S S S S S   4x
||--------------------------------|---------------------------------||
||o-------------------------------|-----------5-4------------------o||
||----5---3-5---6---3-5-----------|---5---3-5-------6-5-------------||
||------------------------6-5-3-2-|-----------------------3-5-2-----||
||o-3---3-----3---3-----3---------|-3---3---------3-----3-------4--o||
||--------------------------------|---------------------------------||


  E E S S S S S S S S S S E   E E S S S S S S S S S S E
|---------------------------|----------------------------|
|-----7h8---5h7---7h8---5h7-|-----7h8---5h7---7h8---5h7--|
|-0-0-----0-----0-----0-----|-0-0-----0-----0-----0------|
|---------------------------|----------------------------|
|---------------------------|----------------------------|
|---------------------------|----------------------------|


                                                      |-3-|
  E E S S S S S S S S S S E   E E S S S S S S S S S S S S S
|---------------------------|--------------------------------|
|-----7h8---5h7---7h8---5h7-|--------------------------------|
|-0-0-----0-----0-----0-----|-0-0-7h8-0-5h7-0-7h8-0-3-3h5p3--|
|---------------------------|--------------------------------|
|---------------------------|--------------------------------|
|---------------------------|--------------------------------|

[ Tab from: http://www.guitartabs.cc/tabs/d/dream_theater/home_btab.html ]
  E E S S S S S S S S S S E   E E S S S S S S S S S S E
|---------------------------|----------------------------|
|-----7h8---5h7---7h8---5h7-|-----7h8---5h7---7h8---5h7--|
|-0-0-----0-----0-----0-----|-0-0-----0-----0-----0------|
|---------------------------|----------------------------|
|---------------------------|----------------------------|
|---------------------------|----------------------------|


  E E S S S S S S S S S S E   E E S S S  S  S S  S  S S  S  E
|---------------------------|----------------------------------|
|-----7h8---5h7---7h8---5h7-|-----7h8---11h12---11h12---12p11--|
|-0-0-----0-----0-----0-----|-0-0-----0-------0-------0--------|
|---------------------------|----------------------------------|
|---------------------------|----------------------------------|
|---------------------------|----------------------------------|


    E S S S S S S S S S S S S S S   E S S S S S S S S S S S S S S   3x
||--------------------------------|---------------------------------||
||o-------------------------------|-----------5-4------------------o||
||----5---3-5---6---3-5-----------|---5---3-5-------6-5-------------||
||------------------------6-5-3-2-|-----------------------3-5-2-----||
||o-3---3-----3---3-----3---------|-3---3---------3-----3-------4--o||
||--------------------------------|---------------------------------||


  E S S S S S S S S S S S S S S   E S S S S S S S S S S S S S S
|-------------------------------|--------------------------------|
|-------------------------------|-----------5-4------------------|
|---5---3-5---6---3-5-----------|---5---3-5-------6-5-------3-5--|
|-----------------------6-5-3-2-|-----------------------3-5------|
|-3---3-----3---3-----3---------|-3---3---------3-----3----------|
|-------------------------------|--------------------------------|


  E E S S S S S S S S S S E   E E S S S S S S S S S S E
|---------------------------|----------------------------|
|---------------------------|----------------------------|
|-----7h8---5h7---7h8---5h7-|-----7h8---5h7---7h8---5h7--|
|-0-0-----0-----0-----0-----|-0-0-----0-----0-----0------|
|---------------------------|----------------------------|
|---------------------------|----------------------------|


                                                      |-3-|
  E E S S S S S S S S S S E   E E S S S S S S S S S S S S S
|---------------------------|--------------------------------|
|---------------------------|--------------------------------|
|-----7h8---5h7---7h8---5h7-|--------------------------------|
|-0-0-----0-----0-----0-----|-0-0-7h8-0-5h7-0-7h8-0-3-3h5p3--|
|---------------------------|--------------------------------|
|---------------------------|--------------------------------|


  E E S S S S S S S S S S E   E E S S S S S S S S S S E
|---------------------------|----------------------------|
|---------------------------|----------------------------|
|-----7h8---5h7---7h8---5h7-|-----7h8---5h7---7h8---5h7--|
|-0-0-----0-----0-----0-----|-0-0-----0-----0-----0------|
|---------------------------|----------------------------|
|---------------------------|----------------------------|


  E E S S S S S S S S S S E   E E S S S  S  S S  S  S S  S  E
|---------------------------|----------------------------------|
|---------------------------|----------------------------------|
|-----7h8---5h7---7h8---5h7-|-----7h8---11h12---11h12---12p11--|
|-0-0-----0-----0-----0-----|-0-0-----0-------0-------0--------|
|---------------------------|----------------------------------|
|---------------------------|----------------------------------|


  S S S S S S S S S S S S S S S S   S S S S S S S S S S S S S S S S
|---------------------------------|---------------------------------|
|---------------------------------|---------------------------------|
|---------------------------------|-----------------------------7-8-|
|---------------------------------|-----------------------5-7-8-----|
|-3-5-6-3-6-3-5-6-3-6-3-5-6-3-----|-3-5-6-3-6-3-5-6-3-5-6-----------|
|-----------------------------6-3-|---------------------------------|


  E E S S S S E E E S S   S E S S S S S E S S S S E
|-----------------------|---------------------------|
|-----------------------|---------------------------|
|---------7-8-7---------|---------------------5-7-5-|
|-0-0-7-8-------0-0-8-7-|-5-4-------4-5---5-7-------|
|-----------------------|-----5-6-5-----5-----------|
|-----------------------|---------------------------|


  S S S S S S S S S S S S S S S S
|-----------------------------------|
|-----------------------------------|
|-----------------------------------|
|-----------------------------------|
|-3-5-6-3-6-3-5-6-3-6-3-5-6-3-------|
|-----------------------------6-3---|


                          |----6----|
  S S S S S S S S S S S S S S S S S S
|-------------------------------------|
|-------------------------------------|
|-------------------------------------|
|-----------------------3-5-6-5-3-----|
|-3-5-6-3-6-3-5-6-3-5-6-----------6-3-|
|-------------------------------------|


  Q.   S S +E  S S +Q     Q.   S S +E  S S +Q
|-----------------------|------------------------|
|-----------------------|------------------------|
|-----------------------|------------------------|
|-----------------------|------------------------|
|-4----4-4-(4)-4-4-(4)--|-1----1-1-(1)-1-1-(1)---|
|-----------------------|------------------------|


  S S S S S S S S S S S S S S S S   S S S S S S S S S S S S S S S S
|---------------------------------|---------------------------------|
|---------------------------------|---------------------------------|
|---------------------------------|---------------------------------|
|-3-3-3-3-3-3-3-3-3-3-3-3-3-3-3-3-|---------------------------------|
|---------------------------------|-4-4-4-4-4-4-4-4-4-4-4-4-4-4-4-4-|
|---------------------------------|---------------------------------|


   S S S S S S S S S S S S S S S S   H    H
|----------------------------------|-----------|
|----------------------------------|-----------|
|----------------------------------|-----------|
|-/8-8-8-8-8-8-8-8-8-8-8-8-8-8-8-8-|-----------|
|----------------------------------|------6----|
|----------------------------------|-4---------|


  S S S S S S S S S S S S S S S S   S S S S S S S S S S S S S S S S
|---------------------------------|---------------------------------|
|---------------------------------|---------------------------------|
|---------------------------------|---------------------------------|
|-3-3-3-3-3-3-3-3-3-3-3-3-3-3-3-3-|---------------------------------|
|---------------------------------|-4-4-4-4-4-4-4-4-4-4-4-4-4-4-4-4-|
|---------------------------------|---------------------------------|


   S S S S S S S S S S S S S S S S   H    H
|----------------------------------|-----------|
|----------------------------------|-----------|
|----------------------------------|-----------|
|-/8-8-8-8-8-8-8-8-8-8-8-8-8-8-8-8-|-----------|
|----------------------------------|-----------|
|----------------------------------|-4----3----|


  E. S E S   S  +E   S  S S  S  E   E.  S S S   E  +E   S  S S  E.
|---------------------------------|---------------------------------|
|---------------------------------|---------------------------------|
|----------/10-(10)-10-10-8-10-10-|-----------/10-(10)-10-10-8-10---|
|-3--3-3-3------------------------|-3---3-3-3-----------------------|
|---------------------------------|---------------------------------|
|---------------------------------|---------------------------------|


  E. S S S E +E  S S E E    E. S E E +E  S S S S E
|-------------------------|------------------------|
|-------------------------|------------------------|
|----------7-(7)-----7----|------------------------|
|-------------------------|------------------------|
|-5--5-5-5-------5-5---5\-|-4--4-4-4-(4)-4-4-4-4-4-|
|-------------------------|------------------------|


  E. S S S E +E  S S S S E    E. S S S E +E  S S S S E
|---------------------------|---------------------------|
|---------------------------|---------------------------|
|---------------------------|---------------------------|
|-8--8-8-8-8-(8)-8-8-8-8-8--|---------------------------|
|---------------------------|-9--9-9-9-9-(9)-9-9-9-9-9--|
|---------------------------|---------------------------|


                              ~~~~~~~
  E. S S S E +E  S S S S E    H    H
|---------------------------|-----------|
|---------------------------|-----------|
|---------------------------|-----------|
|---------------------------|-----------|
|-6--6-6-6-6-(6)-6-6-6-6-6--|-3---------|
|---------------------------|------5----|


  E E S S S S S S S S S S E   E E S S S S S S S S S S E
|---------------------------|----------------------------|
|---------------------------|----------------------------|
|---------------------------|----------------------------|
|-----5h6---3h5---5h6---3h5-|-----5h6---3h5---5h6---3h5--|
|---------------------------|----------------------------|
|-3-3-----3-----3-----3-----|-3-3-----3-----3-----3------|


                                                      |-3-|
  E E S S S S S S S S S S E   E E S S S S S S S S S S S S S
|---------------------------|--------------------------------|
|---------------------------|--------------------------------|
|---------------------------|--------------------------------|
|-----5h6---3h5---5h6---3h5-|--------------------------------|
|---------------------------|-----5h6---3h5---5h6---1-1h3p1--|
|-3-3-----3-----3-----3-----|-3-3-----3-----3-----3----------|


  E E S S S S S S S S S S E   E E S S S S S S S S S S E
|---------------------------|----------------------------|
|---------------------------|----------------------------|
|---------------------------|----------------------------|
|-----5h6---3h5---5h6---3h5-|-----5h6---3h5---5h6---3h5--|
|---------------------------|----------------------------|
|-3-3-----3-----3-----3-----|-3-3-----3-----3-----3------|


  E E S S S S S S S S S S E   E E S S S S S S S S S S E
|---------------------------|----------------------------|
|---------------------------|----------------------------|
|---------------------------|-----------4h5---4h5---5p4--|
|-----5h6---3h5---5h6---3h5-|-----5h6--------------------|
|---------------------------|----------------------------|
|-3-3-----3-----3-----3-----|-3-3-----3-----3-----3------|


    E E S S S S S S S S S S E   E E S S S S S S S S S S E
||----------------------------|---------------------------|
||o-----7h8---5h7---7h8---5h7-|-----7h8---5h7---7h8---5h7-|
||--0-0-----0-----0-----0-----|-0-0-----0-----0-----0-----|
||----------------------------|---------------------------|
||o---------------------------|---------------------------|
||----------------------------|---------------------------|


  E E S S S S S S S S S S E   E S S E S S S S S S +Q
|---------------------------|---------------------------||
|-----7h8---5h7---7h8---5h7-|-------5---3h5------------o||
|-0-0-----0-----0-----0-----|---------------------------||
|---------------------------|-3-3-3---3-----3-3-3-(3)---||
|---------------------------|--------------------------o||
|---------------------------|---------------------------||


  Q=129
 7/8                                    4/4
  E  Q  H      E  Q  H      E  Q  H      E  E Q  Q  S S S S
|------------|------------|------------|---------------------|
|------------|------------|------------|---------------------|
|------------|------------|------------|---------------------|
|------------|------------|------------|------------6-5-3----|
|------------|------------|------------|---------------------|
|-3\---------|-3\---------|-3\---------|-3\------------------|


 7/8                                    4/4
  Q  Q  Q  E   Q  Q  Q  E   Q  Q  Q  E   Q  Q  Q  S S S S
|------------|------------|------------|-------------------|
|----7-----7-|----7-----7-|----7-----7-|----7--------------|
|-0-----0----|-0-----0----|-0-----0----|-0-----0-----------|
|------------|------------|------------|----------6-5-3----|
|------------|------------|------------|-------------------|
|------------|------------|------------|-------------------|


 7/8
  Q  Q  Q  E   Q  Q  Q  E   Q  Q  Q  E   Q  Q  Q  S S
|------------|------------|------------|----------------|
|----7-----7-|----7-----7-|----7-----7-|----7-----------|
|-0-----0----|-0-----0----|-0-----0----|-0-----0--------|
|------------|------------|------------|----------6-5---|
|------------|------------|------------|----------------|
|------------|------------|------------|----------------|


 4/4                                         7/8
  e. S S S E S e S q    e. S S S E S e S q    Q  Q  Q  E   Q  Q  Q  E
|---------------------|---------------------|------------|--------------|
|----------5---5-5----|----------5---5-5----|----7-----7-|----7-----7---|
|---------------------|---------------------|-0-----0----|-0-----0------|
|-3--3---3---------3--|-3--3---3---------3--|------------|--------------|
|---------------------|---------------------|------------|--------------|
|---------------------|---------------------|------------|--------------|


                             6/4
  Q  Q  Q  E   Q  Q  Q  S S   e. S S S E S e S q  e e e e
|------------|--------------|------------------------------|
|----7-----7-|----7---------|----------5---5-5--------5-5--|
|-0-----0----|-0-----0------|------------------------------|
|------------|----------6-5-|-3--3---3---------3--3-3------|
|------------|--------------|------------------------------|
|------------|--------------|------------------------------|


                               7/16            4/4
  e. S S S E S e S e e e e q    S S S S S S S   Q  Q  Q  Q
|-----------------------------|---------------|-------------|
|----------5---5-5-----5-5----|---------------|-------------|
|-----------------------------|-----4-5-4-----|-------------|
|-3--3---3---------3-3-----3--|-5-6-------6-5-|-------------|
|-----------------------------|---------------|-------------|
|-----------------------------|---------------|-3--3--3--3--|


 3/16    4/4           3/16    4/4
  S S S   Q  Q  Q  Q    S S S   S S S S +S  S S S S S S S S S S S
|-------|-------------|-------|------------------------------------|
|-------|-------------|-------|------------------------------------|
|-------|-------------|-------|------------------------------------|
|-------|-------------|-5-3---|-----3-5-(5)-3-------3-5-6-5-3------|
|-3-----|-------------|-----6-|-5-6-----------6-5-6-----------6-5--|
|---6-4-|-3--3--3--3--|-------|------------------------------------|


 3/16    4/4                                 4/16
  S S S   S S S S +S  S S S S S S S S S S S   S S S S   S S S S
|-------|-----------------------------------|---------|---------|
|-------|-----------------------------------|---------|---------|
|-------|-----------------------------------|---------|---------|
|-5-3---|-----3-5-(5)-3-------3-5-6-5-3-----|-5-3-----|---4-5-6-|
|-----6-|-5-6-----------6-5-6-----------6-5-|-----6-5-|-6-------|
|-------|-----------------------------------|---------|---------|


 4/4                                 3/16
  S S S S +S  S S S S S S S S S S S   S S S
|-----------------------------------|-------|
|-----------------------------------|-------|
|-----4-5-(5)-4-------4-5-7-5-4-----|-5-4---|
|-5-6-----------6-5-6-----------6-5-|-----6-|
|-----------------------------------|-------|
|-----------------------------------|-------|


 4/4
  S S S S +S  S S S S S S S S S S S
|------------------------------------|
|------------------------------------|
|-----4-5-(5)-4-------4-5-7-5-4------|
|-5-6-----------6-5-6-----------6-5--|
|------------------------------------|
|------------------------------------|


 3/16      2/4
  S  S  S   S  S  S  S S  S  S  S
|---------|-----------------------|
|---------|-----------------------|
|-5--4----|-------4--5----4--5--7-|
|-------6-|-5--6-------6----------|
|---------|-----------------------|
|---------|-----------------------|


 6/16               4/4
  S  S  S S  S  S      W         +W         W
|------------------|--------|-----------|--------*|
|------------------|---5----|----(5)----|--------*|
|-4--5--7-5--7--8--|--------|-----------|--------*|
|------------------|--------|-----------|--------*|
|------------------|--------|-----------|--------*|
|------------------|--------|-----------|---3----*|


Duration Legend
---------------
W - whole; H - half; Q - quarter; E - 8th; S - 16th; T - 32nd; X - 64th; a - acciaccatura
+ - note tied to previous; . - note dotted; .. - note double dotted
Uncapitalized letters represent notes that are staccato (1/2 duration)
Irregular groupings are notated above the duration line
Duration letters will always appear directly above the note/fret number it represents the
duration for.  Duration letters with no fret number below them represent rests.  Multi-
bar rests are notated in the form Wxn, where n is the number of bars to rest for.  Low
melody durations appear below the staff

Tablature Legend
----------------
 h   - hammer-on
 p   - pull-off
 b   - bend
 pb  - pre-bend
 r   - bend release (if no number after the r, then release immediately)
 /\  - slide into or out of (from/to "nowhere")
 s   - legato slide
 S   - shift slide
  - natural harmonic
[n]  - artificial harmonic
n(n) - tapped harmonic
 ~   - vibrato
 tr  - trill
 T   - tap
 TP  - trem. picking
 PM  - palm muting
\n/  - tremolo bar dip; n = amount to dip
 \n  - tremolo bar down
 n/  - tremolo bar up
/n\  - tremolo bar inverted dip
 =   - hold bend; also acts as connecting device for hammers/pulls
   - volume swell (louder/softer)
 x   - on rhythm slash represents muted slash
 o   - on rhythm slash represents single note slash

Misc Legend
-----------
 |  - bar
||  - double bar
||o - repeat start
o|| - repeat end
*|  - double bar (ending)
 :  - bar (freetime)
 $  - Segno
 &  - Coda
Tempo markers -  = BPM(8/16=s8/s16), where s8 = swing 8ths, s16 = swing 16ths


*****************************************************************************************
* Generated using Power Tab Editor by B.S. Larsen - http://www.crosswinds.net/~powertab *
*****************************************************************************************

Comments