Dream Theater - Hollow Years Chords & Tabs

 

Hollow Years Chords & Tabs

Dream Theater Chords & Tabs

Version: 1 Type: Tab 0 ratings
1 star 2 stars 3 stars 4 stars 5 stars
comments

Hollow Years Tab

Hollow years
By Dream theater
Tabbed by: bighabit69@iamwasted.com (silkmoth)

Good song,played on classical guitars i think.

 Intro


  Gtr I
|---------|-----------------------|--------------------------------|
|---------|------------------10---|-10h11-11-(11)------------------|
|---------|--------9p7-10---------|--------------------------------|
|---------|------7----------------|--------------------------------|
|---------|-----------------------|--------------------------------|
|---------|-----------------------|--------------------------------|
|
| Gtr II
|---------|-0--0---0-x--0--0--0-x-|--3---------3--3-3-3-3-3-3-3-x--|
|---------|-6--6---6-x--6--6--6-x-|--3---------3--3-3-3-3-3-3-3-x--|
|---------|-7--7---7-x--7--7--7-x-|--3---------3--3-3-3-3-3-3-3-x--|
|---------|-7--7---7-x--0--0--0-x-|--3---------3--3-3-3-3-3-3-3-x--|
|---------|-5--5---5-x--0--0--0-x-|--5---------5--5-5-5-5-5-5-5-x--|
|---------|-------------8--8--8-x-|--3---------3--3-3-3-3-3-3-3-x--|


|-------------------------------|------------------------------|
|-----------------------------8-|-8S10-10-(10)-----------------|
|-----------7p6-7S9-----(9)-----|------------------------------|
|---------8---------------------|------------------------------|
|-------------------------------|------------------------------|
|-------------------------------|------------------------------|
|
|-3-3-3-3---3-3-3---3-3--3--x-x-|-0--0--0---0--x-5-5-5-5-5-5-5-|
|-5-5-5-5---5-5-2---2-2--2--x-x-|-6--6--6---6--x-5-5-5-5-5-5-5-|
|-3-3-3-3---3-3-2---2-2--2--x-x-|-7--7--7---7--x-5-5-5-5-5-5-5-|
|-3-3-3-3---3-3-2---2-2--2--x-x-|-7--7--7---7--x-5-5-5-5-5-5-5-|
|-5-5-5-5---5-5-0---0-0--0--x-x-|-5--5--5---5--x-7-7-7-7-7-7-7-|
|-6-6-6-6---6-6-----------------|----------------5-5-5-5-5-5-5-|


|------------------6S8---|-8-6-6-(6)-----5-5-------------|
|------------------------|---------------------8---(8)---|
|--------9p7-10----------|-------------------------------|
|------7-----------------|-------------------------------|
|------------------------|-------------------------------|
|------------------------|-------------------------------|
|
|-0--0---0-x--0--0---0-x-|-3------3--3-3---3-3-3-3--3--x-|
|-6--6---6-x--6--6---6-x-|-3------3--3-3---3-3-3-3--3--x-|
|-7--7---7-x--7--7---7-x-|-3------3--3-3---3-3-3-3--3--x-|
|-7--7---7-x--0--0---0-x-|-3------3--3-3---3-3-3-3--3--x-|
|-5--5---5-x--0--0---0-x-|-5------5--5-5---5-5-5-5--5--x-|
|-------------8--8---8-x-|-3------3--3-3---3-3-3-3--3--x-|


|-------------------------------|----------------------------------|
|-----------------------------6-|-5h6p5----------------------------|
|-----------7p6-7S9-----(9)-----|-------7-7-(7)-----(7)------------|
|---------8---------------------|----------------------------------|
|-------------------------------|----------------------------------|
|-------------------------------|----------------------------------|
|
|-3-3-3-----x-x-3---3-3--3--x-x-|-0-----0-0--0--x-0--0--0-0-0-0-0--|
|-5-5-5-----x-x-2---2-2--2--x-x-|-6-----6-6--6--x-6--6--6-6-6-6-6--|
|-3-3-3-----x-x-2---2-2--2--x-x-|-7-----7-7--7--x-7--7--7-7-7-7-7--|
|-3-3-3-----x-x-2---2-2--2--x-x-|-7-----7-7--7--x-7--7--7-7-7-7-7--|
|-5-5-5-5---x-x-0---0-0--0--x-x-|-5-----5-5--5--x-5--5--5-5-5-5-5--|
|-6-6-6-6---x-x-----------------|----------------------------------|


   Verse 1 & 2
||-----------------|-----------3-(3)-------|
||o-------6-6------|---------3-------3-----|
||------7-----0----|-------3-----------3---|
||----7---------7--|-----7---------------7-|
||o-5--------------|---5-------------------|
||----------8------|-3---------------------|


|---------------0---|-------0-(0)-----0-----|
|-------1-3-------3-|-----6-3-(3)-------3---|
|-----0-------0-----|-----7-5-(5)---------5-|
|---3-------5-------|---7---5-(5)---5-------|
|-1-------3---------|-5-----------0---------|
|-------------------|-----------------------|


|----------------|-----------3-(3)-------|
|-------6-6------|---------3-------3-----|
|-----7-----0----|-------3-----------3---|
|---7---------7--|-----7---------------7-|
|-5--------------|---5-------------------|
|---------8------|-3---------------------|


|-----------------0---|-------------------0-------|
|---------1-3-------3-|-------8-5-(5)-------5-----|
|-----0-0-------0-----|-----6-9-6-(6)---------6---|
|---3---------5-------|---7-------------7---------|
|-1---------3---------|-0-------------0-----------|
|---------------------|---------------------------|


|--0---------0----|-----0---------0----|
|----6---------6--|-(6)---6---------6--|
|------7-(7)------|---------0-(0)------|
|-----------------|--------------------|
|-----------------|--------------------|
|-----------------|--------------------|


|-----0---------0----|-----0---------0----|
|-(6)---6---------6--|-(6)---6---------6--|
|---------7-(7)------|---------0-(0)------|
|--------------------|--------------------|
|--------------------|--------------------|
|--------------------|--------------------|


|-----0---------0----|-----0-------0----|
|-(6)---6---------6--|-(6)---6-------6--|
|---------7-(7)------|---------0-0------|
|--------------------|------------------|
|--------------------|------------------|
|--------------------|------------------|
|
| Gtr II
|--------------------|------------------|
|--------------------|------------------|
|--------------------|------------------|
|--------------------|------------------|
|--------------------|------------------|
|--------------------|------------------|


|------------------|----------------------|
|------------------|----------------------|
|------------------|----------------------|
|------------------|----------------------|
|------------------|----------------------|
|------------------|----------------------|
|
|------------------|----------------------|
|-----6---------6--|-(6)---6---------5----|
|---5---------5----|-----5---5-(5)-5---5--|
|-8-----8-(8)------|----------------------|
|------------------|----------------------|
|------------------|----------------------|


 Chorus
|-------------------|---------------------|
|-6-----------------|-(6)-------------5-6-|
|-5-----------------|-(5)-------------5-5-|
|-7-----------------|-(7)-------------7-7-|
|-------------------|---------------------|
|-------------------|---------------------|
|
|-------------------|---------------------|
|-----6---------6---|-------6---------5-6-|
|---5---5-(5)-5---5-|-(5)-5---5-(5)-5-----|
|-7-----------------|---------------------|
|-------------------|---------------------|
|-------------------|---------------------|


|-------------------|----------------------|
|-6-----------------|--6----6----6----5-6--|
|-5-----------------|--5----5----5--5------|
|-7-----------------|--7----7----7---------|
|-------------------|----------------------|
|-------------------|----------------------|
|
|-------------------|----------------------|
|-----6---------6---|-------6---------5-6--|
|---5---5-(5)-5---5-|-(5)-5---5-(5)-5------|
|-7-----------------|----------------------|
|-------------------|----------------------|
|-------------------|----------------------|


|---------------------|-------------------|
|-(6)---6----6----6---|-(6)---6---5-----5-|
|-----5---------5-----|-----5-------6-----|
|---------------------|---------------7---|
|---------------------|-------------------|
|---------------------|-------------------|
|
|---------------------|-------------------|
|-------6---------6---|-------6---5-----5-|
|-----5---5-(5)-5---5-|-(5)-5---5---6-----|
|--7------------------|---------------7---|
|---------------------|-------------------|
|---------------------|-------------------|


|---0-------0----|--10---10-(10)---------|
|-----6---6---6--|-----8-----------8-----|
|----------------|---------------7-------|
|----------------|-----------------------|
|----------------|-----------------------|
|----------------|-----------------------|
|
|---0-------0----|--10---10-(10)---------|
|-----6-------6--|-----8-----------8-----|
|-7-----7-5------|---------------7---10--|
|----------------|-----------------------|
|----------------|-----------------------|
|----------------|-----------------------|


  
|-------------------|-----------------------------|
|-----6----6----6---|-----------------------------|
|---5---------5-----|-----------------------------|
|-8-----------------|-----------------------------|
|-------------------|-----------------------------|
|-------------------|-----------------------------|
|
|-------------------|-5-5-5-5-5-5-5-(5)-5-5-5-5-5-|
|-----6---------6---|-6-6-6-6-6-6-6-(6)-6-6-6-6-6-|
|---5---5-(5)-5---5-|-5-5-5-5-5-5-5-(5)-5-5-5-5-5-|
|-8-----------------|-----------------------------|
|-------------------|-----------------------------|
|-------------------|-----------------------------|


  Gtr II
|-5-5-5-5-5-5-5-5-5-5-5-5-|-5-5-5-5-5-5-5-(5)-5-5-5-5-5-|
|-6-6-6-6-6-6-6-6-6-6-6-6-|-6-6-6-6-6-6-6-(6)-6-6-6-6-6-|
|-5-5-5-5-5-5-5-5-5-5-5-5-|-5-5-5-5-5-5-5-(5)-5-5-5-5-5-|
|-8-8-8-8-8---------------|-----------------------------|
|-------------------------|-----------------------------|
|-------------------------|-----------------------------|


                           
  Gtr I
|--------------------------||-------------------|
|-------------------------o||-----6----6----6---|
|--------------------------||---5---------5-----|
|--------------------------||-8-----------------|
|-------------------------o||-------------------|
|--------------------------||-------------------|
|
| Gtr II
|-5-5-5-5-5-5-5-5-5-5-5-5--||---8---8-(8)-------|
|-6-6-6-6-6-6-6-6-6-6-6-6-o||-----6---------6---|
|-5-5-5-5-5-5-5-5-5-5-5-5--||-------------5---5-|
|-8-8-8-8-8----------------||-------------------|
|-------------------------o||-------------------|
|--------------------------||-------------------|

[ Tab from: http://www.guitartabs.cc/tabs/d/dream_theater/hollow_years_tab.html ]
 Guitar Solo
|-------------------------|--------------------------------------|
|------------------8S10---|-10h11-11-(11)-----(11)---6-8p6S5-6-8-|
|--------9p7-10-----------|--------------------------------------|
|------7------------------|--------------------------------------|
|-------------------------|--------------------------------------|
|-------------------------|--------------------------------------|
|
|-0--0---0-x--0--0----0-x-|--3---------3--3-3---3--3-3-3---3-x---|
|-6--6---6-x--6--6----6-x-|--3---------3--3-3---3--3-3-3---3-x---|
|-7--7---7-x--7--7----7-x-|--3---------3--3-3---3--3-3-3---3-x---|
|-7--7---7-x--0--0----0-x-|--3---------3--3-3---3--3-3-3---3-x---|
|-5--5---5-x--0--0----0-x-|--5---------5--5-5---5--5-5-5---5-x---|
|-------------8--8----8-x-|--3---------3--3-3---3--3-3-3---3-x---|


|---------------------------------|-------------------13-----12-10--------|
|-(8)---------------------------8-|-8S10-10-(10)---10-----------------10--|
|-------------7p6-7S9-----(9)-----|--------------------------------12-----|
|-----------8---------------------|---------------------------------------|
|---------------------------------|---------------------------------------|
|---------------------------------|---------------------------------------|
|
|--3--3-3-3---x-x-3---3-3--3--x-x-|-0--0--0---0--x--5--5-5-5--5--5--5-----|
|--5--5-5-5---x-x-2---2-2--2--x-x-|-6--6--6---6--x--5--5-5-5--5--5--5-----|
|--3--3-3-3---x-x-2---2-2--2--x-x-|-7--7--7---7--x--5--5-5-5--5--5--5-----|
|--3--3-3-3---x-x-2---2-2--2--x-x-|-7--7--7---7--x--5--5-5-5--5--5--5-----|
|--5--5-5-5---x-x-0---0-0--0--x-x-|-5--5--5---5--x--7--7-7-7--7--7--7-----|
|--6--6-6-6---x-x-----------------|-----------------5--5-5-5--5--5--5-----|


|------------12p10---13-13-13-12---10---|
|-(10)----10---------15-15-15-13---11---|
|---------------------------------------|
|---------------------------------------|
|---------------------------------------|
|---------------------------------------|
|
|---0---0-----0--x-0--------0----0----x-|
|---6---6-----6--x-6--------6----6----x-|
|---7---7-----7--x-7--------7----7----x-|
|---7---7-----7--x-0--------0----0----x-|
|---5---5-----5--x-0--------0----0----x-|
|------------------8--------8----8----x-|


|-(10)-12--6-6h8p6p5-(5)-6-------5--------|
|-(11)-------------------------------8p6--|
|-----------------------------------------|
|-----------------------------------------|
|-----------------------------------------|
|-----------------------------------------|
|
|---3------3-3-3------3--3-3-3-3---x-x----|
|---3------3-3-3------3--3-3-3-3---x-x----|
|---3------3-3-3------3--3-3-3-3---x-x----|
|---3------3-3-3------3--3-3-3-3---x-x----|
|---5------5-5-5------5--5-5-5-5---x-x----|
|---3------3-3-3------3--3-3-3-3---x-x----|


|-------------5---------------------------|
|-(6)-8-----8-----6-5-(5)-6-----6-5-------|
|-------------------------------------7-6-|
|-----------------------------------------|
|-----------------------------------------|
|-----------------------------------------|
|
|--3----3-3-3---x-x----3----3-3-3---x-x---|
|--5----5-5-5---x-x----2----2-2-2---x-x---|
|--3----3-3-3---x-x----2----2-2-2---x-x---|
|--3----3-3-3---x-x----2----2-2-2---x-x---|
|--5----5-5-5---x-x----0----0-0-0---x-x---|
|--6----6-6-6---x-x-----------------------|


|-----------------5-6---8---6---6S5--------|
|---------------6-------------------8p==6--|
|-7-----(7)---7----------------------------|
|------------------------------------------|
|------------------------------------------|
|------------------------------------------|
|
|-0-0-0--0--x-5-----5-5---5---5---5---5----|
|-6-6-6--6--x-5-----5-5---5---5---5---5----|
|-7-7-7--7--x-5-----5-5---5---5---5---5----|
|-7-7-7--7--x-5-----5-5---5---5---5---5----|
|-5-5-5--5--x-7-----7-7---7---7---7---7----|
|-------------5-----5-5---5---5---5---5----|


 End Guitar Solo
|--0---------0----|-----0---------0----|
|----6---------6--|-(6)---6---------6--|
|------7-(7)------|---------0-(0)------|
|-----------------|--------------------|
|-----------------|--------------------|
|-----------------|--------------------|


|-----0---------0----|-----0---------0----|
|-(6)---6---------6--|-(6)---6---------6--|
|---------7-(7)------|---------0-(0)------|
|--------------------|--------------------|
|--------------------|--------------------|
|--------------------|--------------------|


|-----0---------0----|-----0-------0----|------------------|-------------------|
|-(6)---6---------6--|-(6)---6-------6--|-----6---------6--|-(6)---6--(6)---6--|
|---------7-(7)------|---------0-0------|---5---------5----|-----5--------5----|
|--------------------|------------------|-8-----8-(8)------|-------------------|
|--------------------|------------------|------------------|-------------------|
|--------------------|------------------|------------------|-------------------|
|
| Gtr II
|--------------------|------------------|------------------|-------------------|
|--------------------|------------------|-----6---------6--|-(6)---6--(6)---6--|
|--------------------|------------------|---5---------5----|-----5--------5----|
|--------------------|------------------|-8-----8-(8)------|-------------------|
|--------------------|------------------|------------------|-------------------|
|--------------------|------------------|------------------|-------------------|


|---------------------||---------3--3-3-3--|
|-(6)---8---------8---||---------3--3-3-3--|
|-----5---5-(5)-5---5-||-0-------0--0-0-0--|
|---------------------||-0-----------------|
|---------------------||-x-----------------|
|---------------------||-3-----------------|
|
|---------------------||-------------------|
|-(6)---8---------8---||-----8--(8)-----8--|
|-----5---5-(5)-5---5-||---7--------7------|
|---------------------||-------------------|
|---------------------||-------------------|
|---------------------||-------------------|


|--3--3-3-3---3--3-3-2-3-|--3--3-3-3---0--0-0-0--|
|--3--3-3-3---3--3-3-3-3-|--3--3-3-3---1--1-1-1--|
|--2--2-2-2---2--2-2-0-0-|--0--0-0-0---0--0-0-0--|
|--0------0--------------|-------------0--0-0-0--|
|------------------------|-------------3--3-3-3--|
|------------------------|-----------------------|
|
|------------------------|-----------------------|
|-(8)-----8--(8)-----7-8-|-(8)-----8--(8)-----8--|
|-----7----------7-------|-----7----------7------|
|------------------------|-----------------------|
|------------------------|-----------------------|
|------------------------|-----------------------|


|--3--3-3-3-3-3-3-3-3-3-3-2-3-|--3--3-3-3--0-0-0-0--|
|--3--3-3-3-3-3-3-3-3-3-3-3-3-|--3--3-3-3--1-1-1-1--|
|--2--2-2-2-2-2-2-2-2-2-2-0-0-|--0--0-0-0--0-0-0-0--|
|--0--0-0-0-0-0-0-0-0-0-0-----|------------0-0-0-0--|
|-----------------------------|------------3-3-3-3--|
|-----------------------------|---------------------|
|
|-----------------------------|---------------------|
|-(8)-----8-------7-------7-8-|-(8)-----8--8-----8--|
|-----7---------------7-------|-----7--------7------|
|-----------------------------|---------------------|
|-----------------------------|---------------------|
|-----------------------------|---------------------|


|--3--3-3-3-3-3-3-2---2---|-0------3-----|
|--3--3-3-3-3-3-3---4---4-|-0------5-----|
|--2--2-2-2-2-2-2---------|-0------4-----|
|--0--0-0-0-0-0-0---------|-2------0-----|
|-------------------------|-2------------|
|-------------------------|-0------------|
|
|-------------------------|--------------|
|-(8)-----8-------7---7---|-----8--8--8--|
|-----7-------------8---8-|---9----------|
|-------------------------|--------------|
|-------------------------|--------------|
|-------------------------|--------------|


|-0-------------------|-0--------3--------|
|-2-------------------|-1--------3--------|
|-2-------------------|-0--------2--------|
|-2-------------------|-0--------0--------|
|-4-------------------|-3-----------------|
|---------------------|-------------------|
|
|---------------------|-------------------|
|-----10--(10)---10-8-|-----8---------8---|
|---9----------9------|---7---7-(7)-7---7-|
|---------------------|-------------------|
|---------------------|-------------------|
|---------------------|-------------------|


                                                         3x
||--3-3-3-3-3-3-(3)-3-3-3-3-3-|-0-0-0-0-0-0-3-3-3-2-2-3--||
||o-3-3-3-3-3-3-(3)-3-3-3-3-3-|-1-1-1-1-1-1-3-3-3-3-3-3-o||
||--0-0-0-0-0-0-(0)-0-0-0-0-0-|-0-0-0-0-0-0-2-2-2-0-0-0--||
||----------------------------|-0-0-0-0-0-0-0-0-0--------||
||o---------------------------|-3-3-3-3-3-3-------------o||
||----------------------------|--------------------------||


|-------------------------|-------------------------|
|-<12>--<12>--<12>--<12>--|-<12>--<12>---13-(13)-12-|
|-------------------------|--------------12-(12)-12-|
|-------------------------|-------------------------|
|-------------------------|-------------------------|
|-------------------------|-------------------------|


|----3-----3--|----3--3--2-3-|
|----3-----3--|----3--3--3-3-|
|-0-----0-----|-0-----0--0-0-|
|-------------|--------------|
|-------------|--------------|
|-------------|--------------|


|----3-----3--|----3----3-2-3-|---3-(3)----------|-3---3---3---2-3-|
|----3-----3--|----3----3-3-3-|---3-(3)--3---3---|-3---3---3---3-3-|
|-0-----0-----|-0-----0-0-0-0-|-0-0-(0)----0---0-|---0---0---0-0-0-|
|-------------|---------------|------------------|-----------------|
|-------------|---------------|------------------|-----------------|
|-------------|---------------|------------------|-----------------|


|-3-3-----3-----3-----|-3--2-3-3----*|
|-3---3-----3-----3---|-3--3-3-3----*|
|-0-----0-----0-----0-|-0--0-0-0----*|
|---------------------|-0--0-0-0----*|
|---------------------|-------------*|
|---------------------|-------------*|
Comments