Dream Theater - Goodnight Kiss Chords & Tabs

 

Goodnight Kiss Chords & Tabs

Dream Theater Chords & Tabs

Version: 2 Type: Tab 0 ratings
1 star 2 stars 3 stars 4 stars 5 stars
comments

Goodnight Kiss Tab

   
Band- Dream Theater
Song- Goodnight Kiss

Gtr I (E A D G B E) - 'Untitled'
Gtr II (E A D G B E) - 'Untitled'

   Intro
    Slow Q=76
    Amaj9         Emaj7         Amaj9         Emaj7
   4/4
    Gtr I
    E E H    Q    E E H    Q    E E H    Q    E E H    Q   4x
||------0-------|-----0-------|-----0-------|--------------||
||o-----0-------|-----0-------|-----0-------|-----7-------o||
||------6-------|-----8-------|-----6-------|-----8--------||
||----6---------|-----9-------|---6---------|-----9--------||
||o-0--------0--|---7---------|-0--------0--|---7---------o||
||--------------|-0--------0--|-------------|-0--------0---||


   Verse
    Amaj9         Emaj7         Amaj9         Emaj7
    E E H    Q    E E H    Q    E E H    Q    E E H    Q
||------0-------|-----0-------|-----0-------|-------------|
||o-----0-------|-----0-------|-----0-------|-----7-------|
||------6-------|-----8-------|-----6-------|-----8-------|
||----6---------|-----9-------|---6---------|-----9-------|
||o-0--------0--|---7---------|-0--------0--|---7---------|
||--------------|-0--------0--|-------------|-0--------0--|


  Amaj9         Emaj7         Amaj9         Emaj7
  E E H    Q    E E H    Q    E E H    Q    E E H    Q
|-----0-------|-----0-------|-----0-------|--------------||
|-----0-------|-----0-------|-----0-------|-----7--------||
|-----6-------|-----8-------|-----6-------|-----8--------||
|---6---------|-----9-------|---6---------|-----9--------||
|-0--------0--|---7---------|-0--------0--|---7----------||
|-------------|-0--------0--|-------------|-0--------0---||


 Bridge
  G#m               G#m/maj7          B/F#    D#m       E
                                                               ~
  E E E E E E E E   E E E E E E E E   E E E E E E E E   E E Q  Q  Q
|-----------------|-----------------|-------------6---|---------------|
|---------4-------|---------4-------|-------4-7-------|-9------5--4---|
|-------4-----4---|-------4-----4---|-----4-----8---8-|---9-----------|
|-----6---------6-|-----5---------5-|---4-------------|-----9---------|
|---6-------------|---6-------------|---------6-------|-7-------------|
|-4---------4-----|-4---------4-----|-2---------------|---------------|


                                                   1.
  C#                C#m/maj7        G#m/B           F#          G
  E E E E E E E E   E E E E Q  Q    E E E E Q  Q    W           W
|-------------4---|---------4-----|---------4-----|-2--------||-3----|
|-------4-5-----5-|-------4----4--|-------4----4--|-2--------||-3----|
|-----6-----6-----|-----5---------|-----4---------|-3--------||-0----|
|---6-------------|---6-----------|---6-----------|-4--------||-0----|
|-4---------------|-4-------------|---------------|-4--------||------|
|-----------------|---------------|-7-------------|-2--------||-3----|


  D                G               D                G
  E Q  E +Q   Q    Q.   E +H       E Q  E +Q   Q    Q.   E +E  Q  E
|-0-2------------|-3-------------|-0-2------------|-3----2-(2)-0-----|
|-3----3-(3)-----|-3-------------|-3----3-(3)-----|-3-------------3--|
|-2-----------2--|-0----2-(2)----|-2-----------2--|-0----------------|
|-0--------------|-0-------------|-0--------------|-0----------------|
|----------------|---------------|----------------|------------------|
|----------------|-3-------------|----------------|-3----------------|


                                                    2.
  D                G                D                F#
  E Q  E +Q   Q    Q.   E +Q   Q    E E +H.          W
|-0-2------------|-3--------------|-0-2-(2)-------||-2----||
|-3----3-(3)-----|-3-----------3--|-3------------o||-2----||
|-2-----------2--|-0----2-(2)-----|-2-------------||-3----||
|-0--------------|-0--------------|-0-------------||-4----||
|----------------|----------------|--------------o||-4----||
|----------------|-3--------------|---------------||-2----||


 Guitar Solo I
  A                      E
  Gtr II
  ~~                        ~~~~~~~~~~~~
  Q.    E +E  E A E  E    A Q.   E +Q     Q
|----------------------|---------------------|
|-9----\5-(5)s7-7s9-10-|-10p9----------------|
|----------------------|---------9-(9)\--\4--|
|----------------------|---------------------|
|----------------------|---------------------|
|----------------------|---------------------|


  A                           E
  ~~
  Q.    E +E  E E A     +E    +Q.   A  E   Q    S  S  S  S
|---------------------------|-------------------------------|
|-9----\5-(5)s7-9-9b10==(9)r|=(9)---9s10-/12---------17-19--|
|---------------------------|-----------------/16-18--------|
|---------------------------|-------------------------------|
|---------------------------|-------------------------------|
|---------------------------|-------------------------------|


  A                        E
   ~~~                         ~~~~~~~~~~~~~
   Q.    E  +E   E  E  E    A  Q.    E  +Q     E E
|-16---------------16-17-|-17p16-------------------|
|-------17-(17)S19-------|----------17-(17)--\12---|
|------------------------|-------------------------|
|------------------------|-------------------------|
|------------------------|-------------------------|
|------------------------|-------------------------|


  A                        E
   ~~~                       ~~~~~~~~     ~~
   Q.    E  +E   E  E  E     Q   +E.   S  H
|-16---------------16-17-|-/19--(19)-/24-24----||
|-------17-(17)S19-------|---------------------||
|------------------------|---------------------||
|------------------------|---------------------||
|------------------------|---------------------||
|------------------------|---------------------||


 Interlude
  C                Dm/C
  ~~                ~~~
  H.        E  E    H.        E  E
|----------------|-----------------|
|-8-------/12-13-|-10-------/12-13-|
|----------------|-----------------|
|----------------|-----------------|
|----------------|-----------------|
|----------------|-----------------|


  G/B                      Am
   ~~~~~~~~~                                     ~~
   H    +E  A A  E  E  E    A      +E   +E   Q   Q   Q
|------------------------|-12b13==(12)r(12)-12----------|
|-\8----(8)-----12-13-15-|----------------------15--13--|
|-------------x----------|------------------------------|
|-----------x------------|------------------------------|
|------------------------|------------------------------|
|------------------------|------------------------------|


  G6                                  F                 Bb
                      ~~~              ~~~               ~~~
                            |--3--|
   A      +Q.    +E   Q.    S  S  S    H.        E  E    H.       E  E
|-----------------------------------|-----------------|----------------|
|-15b17==(15)r==(15)-12----12h13p12s|=10-------/12-13-|-15-------17-18-|
|-----------------------------------|-----------------|----------------|
|-----------------------------------|-----------------|----------------|
|-----------------------------------|-----------------|----------------|
|-----------------------------------|-----------------|----------------|


  G
   ~~~~~
            |--3--|  |------6-------|  |------6-------|
   Q     E  S  S  S  S  S  S  S  S  S  S  S  S  S  S  S
|-------------------------15-19----------------17-20-19---|
|-18b20----------------15-------------17-18-20------------|
|-------------------16-------------19---------------------|
|----------------17-------------17------------------------|
|-------------17------------------------------------------|
|----------15---------------------------------------------|


  C                      Dm/C                   G/B
   ~~~~~~~~~~~~~          ~~~~~~~~~~~~~          ~~~~~~~~~~~~~
   Q.    E  +Q    E  E    Q.    E  +Q    E  E    Q.    E  +E   E  E  E
|----------------19-20-|-17----17-(17)--19-20-|---------------19-20-22-|
|-20----20-(20)--------|----------------------|-20----20-(20)----------|
|----------------------|----------------------|------------------------|
|----------------------|----------------------|------------------------|
|----------------------|----------------------|------------------------|
|----------------------|----------------------|------------------------|


  Bb              Am        Fm/Ab
               ~~      ~~                 ~~~~~~~
   a     +Q    Q   Q   Q     a     +Q.    E  +Q    Q
|-24b25-(24)--24--22--20--|----------------------------|
|-------------------------|-20b21-(20)---20-(20)--18---|
|-------------------------|----------------------------|
|-------------------------|----------------------------|
|-------------------------|----------------------------|
|-------------------------|----------------------------|


  C/G                    D/F#
   ~~                     ~~~~~~~~~~~~~
               |--3--|                      |--3--|
   H     Q.    S  S  S    Q.    E  +E.   S  E  E  E
|-20-------------------|----------------------------|
|-------17----17h18p17-|-15----15-(15)-----12-13-15-|
|----------------------|---------------/14----------|
|----------------------|----------------------------|
|----------------------|----------------------------|
|----------------------|----------------------------|


  Fm                    Gsus4          G
                 ~~~~~~~~~~~
                               |--3--|
   a     +H      H       Q.    S  S  S  E  +Q.
|---------------------|------------------------------||
|-15b16-(15)----15----|-13----13h15p13-12-(12tr13)---||
|---------------------|------------------------------||
|---------------------|------------------------------||
|---------------------|------------------------------||
|---------------------|------------------------------||

[ Tab from: http://www.guitartabs.cc/tabs/d/dream_theater/goodnight_kiss_tab_ver_2.html ]
 Guitar Solo II
  Faster Q=104
  Cm          D/C                 Cm         D/C         Cm
                                             <    <       <
                                  ~                       ~~~~~~~~~
   W           +H.       E  +E    W          H    H       H    +E  +E  E E
|-----------|-------------------|----------|-----------|---------------------|
|-13--------|-(13)------13-(13)s|=8--------|-7----6----|---------------------|
|-----------|-------------------|----------|-----------|-/8----(8)-(8)s5-----|
|-----------|-------------------|----------|-----------|---------------------|
|-----------|-------------------|----------|-----------|---------------------|
|-----------|-------------------|----------|-----------|---------------------|


  D/C                    Cm                             D/C
                                         ~~
       |--3--|  |-3--|
  H    E   E E  E E  E    E       +S  S  H     +E   E   H    E   S S  S S S S
|----------------------|------------------------------|-----------------------|
|----------------------|-10b10.5r(10)-----------------|-----------------------|
|-----------------8-10-|-10b10.5r(10)p8---------------|-----------------------|
|------------8-10------|----------------10----(10)\---|------------8----------|
|--------/10-----------|------------------------------|--------/10---\8-6-----|
|----------------------|------------------------------|-------------------8p6-|


  Cm               D/C
  ~
                       |-3--|
  H    Q      Q    E   S S  S      +E   S S  a     +Q    Q
|----------------|----------------------8---11b13-(11)--11--|
|----------------|------------------------8-----------------|
|----------------|-------8-10b12==(10)r---------------------|
|----------------|---/10------------------------------------|
|------6b6.5-----|------------------------------------------|
|-8--------------|------------------------------------------|


  Cm
   ~~~
   Q.   +E   Q  E  S  S
|-/8----(8)\------------|
|-----------------13-13-|
|-----------------------|
|-----------------------|
|-----------------------|

|-----------------------|


  D/C
                               |--3--|
   a      +E   +E.  +S   S  S  S  S  S  E  S  S  a     +S   S
|-15b17==(15)-(15)r(15)-15-14-13h14p13------------------------|
|--------------------------------------16-16-13------------13-|
|-----------------------------------------------15b17-(15)----|
|-------------------------------------------------------------|
|-------------------------------------------------------------|
|-------------------------------------------------------------|


  Cm                          D/C
         ~~~                                                    ~~~
    S S  Q.   Q      E S  S   S  S  S  S  a     +E   a     +E   Q.   E
|---------------------------|-------------------------------------------|
|---------------------------|---------11-13b16-(13)-13b16-(13)-13-------|
|-\10-8-------8b8.5---------|-8-10s12-----------------------------------|
|-------10-------------8-10-|-------------------------------------------|
|---------------------------|-------------------------------------------|
|---------------------------|-------------------------------------------|


  Cm                                           D/C
                                                ~~
   a     +E   S  S  Q      a      +Q.    +E     Q  E.  S  S  S  S S S S S  S
|---------------20-20b22--20b22==(20)r==(20)-|--------10-10------------------||
|------------20------------------------------|-19-----------10-10-7-7-----10-||
|-22b24-(22)---------------------------------|------------------------7-7----||
|--------------------------------------------|-------------------------------||
|--------------------------------------------|-------------------------------||
|--------------------------------------------|-------------------------------||


  Ebm
    ~~~~~~~
                 |-3--|                               |--3--|
    H    H       q q  q  a      +Q.    +S  S    Q.    S  S  S  Q.    S  S
|-------------|------------------------------|-------11-13-14-16----14p13-|
|-/11----9----|-11-9-11-11b12==(11)r==(11)p9-|-11-------------------------|
|-------------|------------------------------|----------------------------|
|-------------|------------------------------|----------------------------|
|-------------|------------------------------|----------------------------|
|-------------|------------------------------|----------------------------|


         ~~
               |------6-------|  |------6-------|
   S  S  Q  E  S  S  S  S  S  S  S  S  S  S  S  S
|-14p13-------13-11-------------------------------|
|-------16----------14-11-12p11-------------------|
|-------------------------------13-11-------------|
|-------------------------------------13-11-------|
|-------------------------------------------13p11-|
|-------------------------------------------------|


    ~~~
                                |-3--|                      |--3--|
    H     Q   +E   S  S   S  S  S  S S  S S  S S   E  S  S  S  S  S  S  S
|-----------------------|-------------------------------------------------|
|-----------------------|-------------------------------------------------|
|-----------------------|----------------------------------10h11p10----10-|
|-----------------------|----------------------------11-13----------13----|
|-/13----11--(11)\------|-9-11h12p11p9-11-9----9-/13----------------------|
|------------------9h11-|-------------------11----------------------------|


                               |--3--|                           |--3--|
   a     +E   S  S  a     +E   S  S  S  a     +E   S  S  E       S  S  S
|------------11---------------11------------------11----14b14.5-11-------|
|---------------11-14b16-(14)----14-11---------------11------------14p11-|
|-13b15-(13)---------------------------13b15-(13)------------------------|
|------------------------------------------------------------------------|
|------------------------------------------------------------------------|
|------------------------------------------------------------------------|


          ~~~~
   a     +Q.     E  S  S  S  S  S  S  S  S
|---------------------13-14-13-14-16-14-16-||
|-14b16-(14)-------16----------------------||
|--------------/15-------------------------||
|------------------------------------------||
|------------------------------------------||
|------------------------------------------||


  F#m
                 ~~
                                 |---3----|  |--3--|
   a     +H      H       a      +Q   +Q   Q  Q  Q  Q
|-16b17-(16)----16----|------------------------------|
|---------------------|-17b19==(17)r(17)-15-14-------|
|---------------------|------------------------16-14-|
|---------------------|------------------------------|
|---------------------|------------------------------|
|---------------------|------------------------------|


          ~~~~
                             |--3---|  |--3--|
   A     +Q.    S  S  A     +E   E  E  E  E  E
|----------------------------------------------|
|--------------14-17------------14-------------|
|-16b18-(16)---------16b18-(16)----17-16-14----|
|-------------------------------------------16-|
|----------------------------------------------|
|----------------------------------------------|


                                 ~~~~~~~~
         |--3--|
   S  S  S  S  S  S  S  S  S  S  E.  +E   +E
|----------------------------------------------|
|----------------------------------------------|
|----------------------------------------------|
|-16-14----------------------------------------|
|-------16s14p12-14-12-------12----------------|
|----------------------14-12----14--(14)-(14)\-|


                                            ~~~~
       |--3--|

  Q    E  E  E      +S   +S       +Q.      +Q   S   S  S  S  a      +Q.    +S   S
|---------------------------------------|-------------19-21-21b22==(21)r==(21)p19--|
|--------17-19b22==(19)r(19)b22==(19)r==|=(19)----/19------------------------------|
|----/18--------------------------------|------------------------------------------|
|---------------------------------------|------------------------------------------|
|---------------------------------------|------------------------------------------|
|---------------------------------------|------------------------------------------|


   ~~~      ~~
   Q.    E  Q  E  A     +E
|-21------------------------|
|-------19-19----17b19-(17)-|
|---------------------------|
|---------------------------|
|---------------------------|
|---------------------------|


                                        A
                           ~~~          ~~~~~~~~~~~~~~~~~~~~~
   S  S  S  S  S  S  S  S  Q.    +E     H    H      H      H
|-14----------------------------------|-----------|-------------|
|----14-17----14----------------------|-----------|-------------|
|----------16----14-16----14----(14)\-|-6----8----|-9----/11----|
|----------------------16-------------|-----------|-------------|
|-------------------------------------|-----------|-------------|
|-------------------------------------|-----------|-------------|


  B             G#m           G#          C#
   ~~~~~~~~~~~~~~~~~~~~~~~~~~~~~~~~~~~~~~~~~~~~~~~~~~~~~~~~~~~~~~~~~~~~~~~~
   H     H       H     H       W           +W            +W            +W
|-------------|-------------|-----------|-------------|-------------|---------*|
|-------------|-12----13----|-14--------|-(14)--------|-(14)--------|-(14)----*|
|-13----14----|-------------|-----------|-------------|-------------|---------*|
|-------------|-------------|-----------|-------------|-------------|---------*|
|-------------|-------------|-----------|-------------|-------------|---------*|
|-------------|-------------|-----------|-------------|-------------|---------*|


Duration Legend
---------------
W - whole; H - half; Q - quarter; E - 8th; S - 16th; T - 32nd; X - 64th; a - acciaccatura
+ - note tied to previous; . - note dotted; .. - note double dotted
Uncapitalized letters represent notes that are staccato (1/2 duration)
Irregular groupings are notated above the duration line
Duration letters will always appear directly above the note/fret number it represents the
duration for.  Duration letters with no fret number below them represent rests.  Multi-
bar rests are notated in the form Wxn, where n is the number of bars to rest for.  Low
melody durations appear below the staff

Tablature Legend
----------------
 h   - hammer-on
 p   - pull-off
 b   - bend
 pb  - pre-bend
 r   - bend release (if no number after the r, then release immediately)
 /\  - slide into or out of (from/to "nowhere")
 s   - legato slide
 S   - shift slide
  - natural harmonic
[n]  - artificial harmonic
n(n) - tapped harmonic
 ~   - vibrato
 tr  - trill
 T   - tap
 TP  - trem. picking
 PM  - palm muting
\n/  - tremolo bar dip; n = amount to dip
 \n  - tremolo bar down
 n/  - tremolo bar up
/n\  - tremolo bar inverted dip
 =   - hold bend; also acts as connecting device for hammers/pulls
 <>  - volume swell (louder/softer)
 x   - on rhythm slash represents muted slash
 o   - on rhythm slash represents single note slash

Misc Legend
-----------
 |  - bar
||  - double bar
||o - repeat start
o|| - repeat end
*|  - double bar (ending)
 :  - bar (freetime)
 $  - Segno
 &  - Coda
Tempo markers -  = BPM(8/16=s8/s16), where s8 = swing 8ths, s16 = swing 16ths


***************************************************************************************
* Generated using Power Tab Editor by Brad Larsen - http://powertab.guitarnetwork.org *
***************************************************************************************
Comments