Dream Theater - Goodnight Kiss Chords & Tabs

 

Goodnight Kiss Chords & Tabs

Dream Theater Chords & Tabs

Version: 1 Type: Bass Tab 0 ratings
1 star 2 stars 3 stars 4 stars 5 stars
comments

Goodnight Kiss Bass Tab

   
==============================================
paki rate po mga gawa ko!! pls... salamat po
sa mga mahilig sa dream theater pinag hirapan 
ko 2ng bass tab na 2, cge play it... chill out...
rok on... HOLOCAUST band bassist...
=============================================
Goodnight kiss by dream theater
Gtr I (B E A D G C) - 'John Myung :: Six String Bass [CGDAEB]'

  Q=69
 4/4
  Gtr I
  Wx32
|---------|
|---------|
|---------|
|---------|
|---------|
|---------|


  W          Q.   Q.   Q     W          H    Q  Q
|----------|---------------|----------|-------------|
|----------|---------------|----------|-------------|
|----------|---------------|----------|-------------|
|----------|-----------5\--|----------|------5------|
|-3--------|---------------|-3--------|-------------|
|----------|-3----3--------|----------|-3-------3---|


  Q.   H    E   Q  +E   Q.   E E   H    +Q   E E   Q.   +E   Q.   E
|-------------|------------------|---------------|-------------------|
|-------------|------------------|---------------|-------------------|
|------5------|------------------|-----------5h7-|-------------------|
|-------------|-5--(5)\------5---|---------------|-5----(5)\---------|
|-3---------5-|------------------|-3----(3)------|-------------------|
|-------------|---------3------3-|---------------|-----------3----5--|


  W          W          W          W
|----------|----------|----------|------|
|----------|----------|----------|------|
|----------|----------|----------|------|
|----------|----------|----------|------|
|-5--------|----------|-5--------|------|
|----------|-5--------|----------|-5----|


  W          H..        S S   H    +Q.   E   W
|----------|----------------|--------------|------|
|----------|----------------|--------------|------|
|----------|----------------|--------------|------|
|----------|----------------|--------------|------|
|-5--------|-0---------/5h7-|-5----(5)-----|------|
|----------|----------------|------------3-|-5----|


  W          Q  Q  Q  Q    H    H      Q  +Q   Q  Q
|----------|-------------|-----------|----------------|
|----------|-------------|-----------|----------------|
|----------|-------------|-----------|----------------|
|----------|----------6--|-9----6----|-7--(7)--7--6---|
|-4--------|-4--6--7-----|-----------|----------------|
|----------|-------------|-----------|----------------|


  W          W          Q.    H     +E    Q.   E H
|----------|----------|-----------------|-------------|
|----------|----------|-------4-----(4)-|-------------|
|----------|----------|-----------------|-------------|
|-4--------|-3--------|-2----(2)----(2)-|-1-----------|
|----------|----------|-----------------|------4-2----|
|----------|----------|-----------------|-------------|


  W          W          W          W
|----------|----------|----------|------|
|----------|----------|----------|------|
|----------|----------|----------|------|
|----------|----------|----------|------|
|-5--------|----------|-5--------|------|
|----------|-5--------|----------|-5----|


  Q.   E E E E E   W          W          W
|----------------|----------|----------|------|
|----------------|----------|----------|------|
|------7-7---7---|----------|----------|------|
|----------------|----------|----------|------|
|-5--------5---5-|----------|-5--------|------|
|----------------|-5--------|----------|-5----|


  Q.   Q.   Q    Q.   Q.   Q    Q.   Q.   Q    Q.   Q.   Q
|--------------|--------------|--------------|---------------|
|--------------|--------------|--------------|---------------|
|--------------|--------------|--------------|---------------|
|-3----3----3--|-3----3----3--|-2----2----2--|-0----0----0---|
|--------------|--------------|--------------|---------------|
|--------------|--------------|--------------|---------------|


  Q.   Q.   Q    Q  Q  Q  Q    W          W
|--------------|-------------|----------|------|
|--------------|-------------|----------|------|
|--------------|-------------|----------|------|
|--------------|-------------|----------|------|
|-3----3----3--|-1--0--------|-6--------|-3----|
|--------------|-------3--1--|----------|------|

[ Tab from: http://www.guitartabs.cc/tabs/d/dream_theater/goodnight_kiss_btab.html ]
  Q.   Q.   Q    Q.   Q.   Q    Q.   E H      H    H
|--------------|--------------|-------------|-----------|
|--------------|--------------|-------------|-----------|
|--------------|--------------|-------------|-----------|
|--------------|--------------|-------------|-----------|
|--------------|--------------|-7----5-3----|-6----5----|
|-1----1----1--|-1----1----1--|-------------|-----------|


  W          W          W          W          W
|----------|----------|----------|----------|------|
|----------|----------|----------|----------|------|
|----------|----------|----------|----------|------|
|----------|----------|----------|----------|------|
|-4--------|-3--------|-2--------|-1--------|-3----|
|----------|----------|----------|----------|------|


    Q=100
    E E E E E E E E   E E E E E E E E  8x
||------------------|------------------||-|
||o-----------------|-----------------o||-|
||------------------|------------------||-|
||------------------|------------------||-|
||o-----------------|-----------------o||-|
||--1---1---1---1---|-1---1---1---1----||-|


    E E E E E E E E   E E E E E E E E   4x
||------------------|-------------------||
||o-----------------|------------------o||
||------------------|-------------------||
||------------------|-------------------||
||o-----------------|------------------o||
||--4---4---4---4---|-4---4---4---4-----||


    E E E E E E E E   E E E E E E E E  4x E E E E E E E E   E E E E E E E E
||------------------|------------------||-----------------|-----------------|
||o-----------------|-----------------o||-----------------|-----------------|
||------------------|------------------||-----------------|-----------------|
||------------------|------------------||-----------------|-----------------|
||o-2---2---2---2---|-2---2---2---2---o||-5---5---5---5---|-5---5---5---5---|
||------------------|------------------||-----------------|-----------------|


  E E E E E E E E   E E E E E E E E
|-----------------|-----------------|
|-----------------|-----------------|
|-----------------|-----------------|
|-----------------|-----------------|
|-7---7---7---7---|-4---4---4---4---|
|-----------------|-----------------|


  W          +W           +W           +W
|----------|------------|------------|--------*|
|----------|------------|------------|--------*|
|----------|------------|------------|--------*|
|----------|------------|------------|--------*|
|----------|------------|------------|--------*|
|-2--------|-(2)--------|-(2)--------|-(2)----*|


Duration Legend
---------------
W - whole; H - half; Q - quarter; E - 8th; S - 16th; T - 32nd; X - 64th; a - acciaccatura
+ - note tied to previous; . - note dotted; .. - note double dotted
Uncapitalized letters represent notes that are staccato (1/2 duration)
Irregular groupings are notated above the duration line
Duration letters will always appear directly above the note/fret number it represents the
duration for.  Duration letters with no fret number below them represent rests.  Multi-
bar rests are notated in the form Wxn, where n is the number of bars to rest for.  Low
melody durations appear below the staff

Tablature Legend
----------------
 h   - hammer-on
 p   - pull-off
 b   - bend
 pb  - pre-bend
 r   - bend release (if no number after the r, then release immediately)
 /\  - slide into or out of (from/to "nowhere")
 s   - legato slide
 S   - shift slide
  - natural harmonic
[n]  - artificial harmonic
n(n) - tapped harmonic
 ~   - vibrato
 tr  - trill
 T   - tap
 TP  - trem. picking
 PM  - palm muting
\n/  - tremolo bar dip; n = amount to dip
 \n  - tremolo bar down
 n/  - tremolo bar up
/n\  - tremolo bar inverted dip
 =   - hold bend; also acts as connecting device for hammers/pulls
 <>  - volume swell (louder/softer)
 x   - on rhythm slash represents muted slash
 o   - on rhythm slash represents single note slash

Misc Legend
-----------
 |  - bar
||  - double bar
||o - repeat start
o|| - repeat end
*|  - double bar (ending)
 :  - bar (freetime)
 $  - Segno
 &  - Coda
Tempo markers -  = BPM(8/16=s8/s16), where s8 = swing 8ths, s16=
Comments