Dream Theater - Glass Prison Chords & Tabs

 

Glass Prison Chords & Tabs

Dream Theater Chords & Tabs

Version: 4 Type: Tab 0 ratings
1 star 2 stars 3 stars 4 stars 5 stars
comments

Glass Prison Tab

   
----------------------------------------------------------------------------
			     The Glass Prison - Dream Theater
----------------------------------------------------------------------------
Tabbed by:Slash_7
Email:windowinaglassprison@hotmail.com
---------------------------------------------------------------------------
G'day firstly this song Rocks.
This is the first song off "Six Degrees of Inner Turbulance",its
quite an epic of a song so I've only tabbed the intro so far,but it goes for about as
long as as a normal song so it should keep you goin for a while. Petrucci or Myung not
sure who plays the intro ,but it is played on a bass and the other parts are played on
a seven-string electric I dont have one of those so I've tabbed it out for two
six-string gtr's.Hope its not too complicated.Enjoy! and please rate my tab.
---------------------------------------------------------------------------
Tuning: (Gtr 1 standard) (Gtr 2 B,E,A,D,G,B)
 (Gtr 1) Main intro Riff Tempo I:(clean-tone w/chorus)              7 times
e|------------------|---------------------|----------------|---------------|
B|-----7-----6------|----4-------4------4-|---7---6--------|---4-----4-----|
G|.-9-----9----7--7-|-5----5--6----6--7---|-9---9----7--7--|-5--5--6---5--.|
D|.-----------------|---------------------|----------------|-------------6.|
A|------------------|---------------------|----------------|---------------|
E|------------------|---------------------|----------------|---------------|
  (Gtr 2):
After main riff plays 4 times 2nd gtr plays this riff:(w/dist)
b|---------|-----------|---------|------------|-------|--------------------|
G|---------|-----------|---------|------------|-------|--------------------|
D|---------|-----------|---------|------------|-------|-P.M.......---P.M...|
A|-2-------|------2--2-|-2-------|-2---2----2-|---2---|-2--2--2--2----2---2|
E|-2-------|------2--2-|-2-------|-2---2----2-|---2---|-2--2--2--2----2---2|
B|-0-------|------0--0-|-0-------|-0---0----0-|---0---|-0--0--0--0----0---0|
 (Gtr 2)
b|----|-----------|--------------------|------------------|----------------|
G|----|-----------|--------------------|------------------|----------------|
D|----|-----~~~~~~|--------------------|------------------|----------------|
A|--2-|-----------|-------5---4--------|---2------2-----2-|---2-----2------|
E|--2-|-/16b(17)--|---/7----7----5---5-|-3---3-4----4-5---|-3---3-4---4---4|
B|--0-|-----------|-0--------------0---|------------------|-------------3--|

b|------------------|------------------|------------------|----------------|
G|------------------|------------------|------------------|----------------|
D|------------------|------------------|------------------|----------------|
A|------5---4-------|---2------2-----2-|------5---4-------|---2------2-----|
E|---/7---7---5---5-|-3---3--4---4-5---|---/7---7---5---5-|-3---3--4---4---|
B|-0------------0---|------------------|-0------------0---|--------------3+|

e|------------------------|-----------------------|------------------------|
B|------------------------|-----------------------|------------------------|
G|------------------------|-----------------------|------------------------|
D|-------5------4---------|----2--------2-------2-|-------5-----4----------|
A|---/7-----7-----5-----5-|-3-----3---4----4--5---|---/7-----7-----5-----5-|
E|-0-----------------0----|-----------------------|-0-----------------0----|
  (Gtr 1):                (w/dist)
e|----------------------|----------------------|------------------------|
B|----------------------|----------------------|------------------------|
G|----------------------|----------------------|------------------------|
D|----------------------|-------9----7---------|----5--------7----4---5-|
A|----------------------|---/10---10----9----9-|-7-----7--7-----7-------|
E|----------------------|----------------------|------------------------|
  (gtr 2):                                                       
b|----------------------|----------------------|------------------------|
G|----------------------|----------------------|------------------------|
D|----------------------|----------------------|------------------------|
A|----2-------2---------|-------5----4---------|----2--------2--------2-|
E|-3----3--4-----4----4-|---/7-----7----5----5-|-3-----3--4-----4--5----|
B|------------------3---|-0----------------0---|------------------------|
  (Gtr 1):
e|------------------------|----------------------------|----------------|
B|------------------------|----------------------------|----------------|
G|------------------------|-------------------------6--|.---------------|
D|-------9------7---------|-----5---------7------5-----|.---------------|
A|--/10-----10-----9----9-|-7------7---7------7--------|----------------|
E|------------------------|---------------------------------------------|
  (Gtr 2 ):                                         Faster/Tempo:II(1:44) 
b|-----------------------|--------------------------|--------------------|
G|-----------------------|--------------------------|--------------------|
D|-----------------------|--------------------------|.-------------------|
A|-------5-----4---------|----2--------2------------|.-------P.M........-|
E|---/7-----7-----5----5-|-3-----3--4------4-----4--|-2--2---------5--2--|
B|-0-----------------0---|--------------------3-----|-0--0---0--0--3--0--|
   (Gtr 1):w/wah                        Play 6 times:
e|------------------------|-------------------------|--------------------|
B|------------------------|-----------7----7---7----|--------------------|
G|------------------------|--------------9---9---9-.|--------------------|
D|------------------------|------------------------.|--------------------|
A|------------------------|-------------------------|--------------------|
E|------------------------|-------------------------|--------------------|
  (Gtr 2):
b|-----------------------|---------------------|-------------------------|
G|-----------------------|---------------------|-------------------------|
D|-----------------------|--------------------.|-P.M.Throughout----------|
A|---P.M.....----P.M....-|---------5---5---5--.|-------------------------|
E|-------5--2-------5--2-|-----5-7---7---7---7-|-------------------------|
B|-0--0--3--0--0--0-3--0-|-5h7-----------------|-3-2-0--0--3-2-0--0-0-0-0|

b|-------------------------|---------------------------|-----------------|
G|-------------------------|---------------------------|-----------------|
D|-------------------------|---------------------------|-----------------|
A|-------------------------|---------------------------|-----------------|
E|-------------------------|---------------------------|-----------------|
B|-3-2-0--0-0-0-0--0-0-0-0-|-3-2-0--0--3-2-0--0--0-0-0-|-5--0-0--6--0--0-|

b|-----------------------|-----------------------|-----------------------| 
G|-----------------------|-----------------------|-----------------------| 
D|-----------------------|-----------------------|-----------------------| 
A|-----------------------|-----------------------|-----------------------| 
E|-----------------------|-----------------------|-----------------------|
B|-3-2-0-0-3-2-0-0-0-0-0-|-3-2-0-0-0-0-0-0-0-0-0-|-3-2-0-0-3-2-0-0-0-0-0-| 
[ Tab from: http://www.guitartabs.cc/tabs/d/dream_theater/glass_prison_tab_ver_4.html ]
b|--------------|
G|--------------|
D|--------------|
A|--------------|
E|--------------|
B|-5-0-0--6-0-0-|
  (Gtr 1)
e|-19-14----------14-19-14----------14-19-14-------|
B|-------15----15----------15----15----------15----|
G|----------16----------------16----------------16-|
D|-------------------------------------------------|
A|-------------------------------------------------|
E|-------------------------------------------------|
 (Gtr 2)
b|-------------------------------------------------|
G|-------------------------------------------------|
D|-------------------------------------------------|
A|-------------------------------------------------|
E|-------------------------------------------------|
B|-3--2--0---0---3---2---0-----0----0----0----0----|
 (Gtr 1)
e|-18-15----------------15-17-14----------------14-|
B|-------17----------17----------16----------16----|
G|----------18-15-18----------------17-14-17-------|
D|-------------------------------------------------|
A|-------------------------------------------------|
E|-------------------------------------------------|
 (Gtr 2)
b|-------------------------------------------------|
G|-------------------------------------------------|
D|-------------------------------------------------|
A|-------------------------------------------------|
E|-------------------------------------------------|
B|-3--2--0---0---0--0--0----0-------0---0---0------|                          
 (Gtr 1)
e|-15-12----------12-15-12----------12-15-12------|-13---------------------|
B|-------12----12----------12----12----------12---|----14-12----------12-14|
G|----------12----------------12----------------12|----------13----13------|
D|------------------------------------------------|-------------15---------|
A|------------------------------------------------|------------------------|
E|------------------------------------------------|------------------------|
 (Gtr 2)
b|-------------------------------------------------|-----------------------|
G|-------------------------------------------------|-----------------------|
D|-------------------------------------------------|-----------------------|
A|-------------------------------------------------|-----------------------|
E|-------------------------------------------------|-----------------------|
B|--3--2--0----0---3--2---0---0-----0---0---0------|---5--0--0---6---0---0-|
  (Gtr 1)
e|-14--10----------10-14-10----------10-14-10-------||
B|--------12----12----------12----12----------12----|
G|-----------11----------------11----------------11-|
D|--------------------------------------------------|
A|--------------------------------------------------|
E|--------------------------------------------------|
 (Gtr 2)
b|--------------------------------------------------|
G|--------------------------------------------------|
D|--------------------------------------------------|
A|--------------------------------------------------|
E|--------------------------------------------------|
B|--3---2--0----0---3---2---0----0---0---0---0------|
 (Gtr 1)
e|-13-10----------------10-12-9---------------9-|
B|-------12----------12---------11---------11---|
G|----------13-10-13---------------12-9-12------|
D|----------------------------------------------|
A|----------------------------------------------|
E|----------------------------------------------|
 (Gtr 2)
b|----------------------------------------------|
G|----------------------------------------------|
D|----------------------------------------------|
A|----------------------------------------------|
E|----------------------------------------------|
B|--3--2--0-----0----0--0--0--0--0---0---0---0--|
 (Gtr 1)
e|------------------------------------------------|-------------------21-24|
B|-15-12----------12-15-12----------12-15-12------|----------14-17---------|
G|-------12----12----------12----12----------12---|-------14-------21------|
D|----------12----------------12----------------12|----14------------------|
A|------------------------------------------------|-16---------------------|
E|------------------------------------------------|------------------------|
 (Gtr 2)
b|-----------------------------------------------|-------------------------|
G|-----------------------------------------------|-------------------------|
D|-----------------------------------------------|-------------------------|
A|-----------------------------------------------|-------------------------|
E|-----------------------------------------------|-------------------------|
B|--3--2--0----0---3--2--0----0---0----0----0----|--5---0---0----6---0---0-|
 (Gtr 1)
e|-22--17--------------17--22--17--------------17--22--17---------|
B|---------18------18--------------18------18--------------18-----|
G|-------------19----------------------19----------------------19-|
D|----------------------------------------------------------------|
A|----------------------------------------------------------------|
E|----------------------------------------------------------------|
 (Gtr 2)
b|----------------------------------------------------------------|
G|----------------------------------------------------------------|
D|----------------------------------------------------------------|
A|---8---7--5------5-------8---7---5-------5-----------5---5----5-|
E|----------------------------------------------------------------|
B|---6---5--3------3-------6---5---3-------3-----------3---3----3-|
 (Gtr 1)
e|-21-18----------------18-20-17----------------17-|
B|-------20----------20----------19----------19----|
G|----------21-18-21----------------21-17-21-------|
D|-------------------------------------------------|
A|-------------------------------------------------|
E|-------------------------------------------------|
 (Gtr 2)
b|-------------------------------------------------|
G|-------------------------------------------------|
D|-------------------------------------------------|
A|--8--7--5-----5-----8---7----5--5----5---5---5---|
E|-------------------------------------------------|
B|--6--5--3-----3-----6---5----3--3----3---3---3---|
 (Gtr 1)
e|-18-15----------15-18-15----------15-18-15-------|
B|-------15----15----------15----15----------15----|
G|----------15----------------15----------------15-|
D|-------------------------------------------------|
A|-------------------------------------------------|
E|-------------------------------------------------|
 (Gtr 2)
b|-------------------------------------------------|
G|-------------------------------------------------|
D|-------------------------------------------------|
A|-8---7--5------5----8---7---5---5------5---5---5-|
E|-------------------------------------------------|
B|-6---5--3------3----6---5---3---3------3---3---3-|
 (Gtr 1)
e|16-------------19-16------|17-13----------13-17-13----------13-17-13-----|
B|----17---------------17---|------15----15----------15----15----------15--|
G|--------19--16----------19|---------14----------------14---------------14|
D|--------------------------|----------------------------------------------|
A|--------------------------|----------------------------------------------|
E|--------------------------|----------------------------------------------|
 (Gtr 2)
b|--------------------------|----------------------------------------------|
G|--------------------------|----------------------------------------------|
D|----------------------5---|----------------------------------------------|
A|-8---7---5-----7---8------|-8--7---5---5-----8--7----5---5----5---5---5--|
E|----------------------3---|----------------------------------------------|
B|-6---5---3-----5---6------|-6--5---3---3-----6--5----3---3----3---3---3--|
 (Gtr 1)
e|-16-13----------------13-15-12----------------12-|
B|-------15----------15----------14----------14----|
G|----------16-13-16----------------15-12-15-------|
D|-------------------------------------------------|
A|-------------------------------------------------|
E|-------------------------------------------------|
 (Gtr 2)
b|-------------------------------------------------|
B|-------------------------------------------------|
D|-------------------------------------------------|
A|-8--7--5-----5-----8---8--5----5-----5---5---5---|
E|-------------------------------------------------|
B|-6--5--3-----3-----6---6--3----3-----3---3---3---|
 (Gtr 1)
e|-13-10----------10-13-10----------10-------|
B|-------11----11----------11----11----11----|
G|----------10----------------10----------10-|
D|-------------------------------------------|
A|-------------------------------------------|
E|-------------------------------------------|
 (Gtr 2)
b|-------------------------------------------|
G|-------------------------------------------|
D|-------------------------------------------|
A|-8--7--5-----5----8----7---5------5---5--5-|
E|-------------------------------------------|
B|-6--5--3-----3----6----5---3------3---3--3-|
 (Gtr 1)
e|15-12-------20-15-------|21-16----------16-21-16----------16-21-16------|
B|------13----------17----|------17----17----------17----17----------17---|
G|---------12----------17-|---------18----------------18----------------18|
D|------------------------|-----------------------------------------------|
A|------------------------|-----------------------------------------------|
E|------------------------|-----------------------------------------------|
 (Gtr 2)
b|------------------------|-----------------------------------------------|
G|------------------------|-----------------------------------------------|
D|---------------------5--|-----------------------------------------------|
A|-8--7--5----7---8-------|-7---6---4-----4---7--6---4--------4---4----4--|
E|---------------------3--|-----------------------------------------------|
B|-6--5--3----5---6-------|-5---4---2-----2---5--4---2--------2---2----2--|
 (Gtr 1)
e|-20-17----------------17-19-16----------------16-|
B|-------19----------19----------18----------18----|
G|----------20-17-20----------------19-16-19-------|
D|-------------------------------------------------|
A|-------------------------------------------------|
E|-------------------------------------------------|
 (Gtr 2)
b|-------------------------------------------------|
G|-------------------------------------------------|
D|-------------------------------------------------|
A|-7--6--4-----4-----7---6---4----4-------4---4--4-|
E|-------------------------------------------------|
B|-5--4--2-----2-----5---4---2----2-------2---2--2-|
 (Gtr 1)
e|-17-14----------14-17-14----------14-17-14-------|
B|-------14----14----------14----14----------14----|
G|----------14----------------14----------------14-|
D|-------------------------------------------------|
A|-------------------------------------------------|
E|-------------------------------------------------|
 (Gtr 2)
b|-------------------------------------------------|
G|-------------------------------------------------|
D|-------------------------------------------------|
A|-7--6--4-----4-----7----6---4-----4------4--4--4-|
E|-------------------------------------------------|
B|-5--4--2-----2-----5----4---2-----2------2--2--2-|
 (Gtr 1)
e|-15----------18-15------|16-12----------12-16-12----------12-16-12------|
B|----16-------------16---|------14----14----------14----14----------14---|
G|-------18-15----------18|---------13----------------13----------------13|
D|------------------------|-----------------------------------------------|
A|------------------------|-----------------------------------------------|
E|------------------------|-----------------------------------------------|
 (Gtr 2)
b|------------------------|-----------------------------------------------|
G|------------------------|-----------------------------------------------|
D|---------------------4--|-----------------------------------------------|
A|--7--6--4----6---7------|-7--6--4---4-------7--6--4----4------4---4---4-|
E|---------------------2--|-----------------------------------------------|
B|--6--4--2----4---5------|-5--4--2---2-------5--4--2----2------2---2---2-|
 (Gtr 1)
e|-15-12----------------12-14-11----------------11-|
B|-------14----------14----------13----------13----|
G|----------15-12-15----------------14-11-14-------|
D|-------------------------------------------------|
A|-------------------------------------------------|
E|-------------------------------------------------|
 (Gtr 2)
b|-------------------------------------------------|
G|-------------------------------------------------|
D|-------------------------------------------------|
A|-7--6--4------4----7--6--4----4--------4----4--4-|
E|-------------------------------------------------|
B|-5--4--2------2----5--4--2----2--------2----2--2-|
 (Gtr 1)
e|-12-9---------9-12-9---------9-12-9------|-----------------------|
B|------10---10--------10---10--------10---|---------------9-10-11-|
G|---------9--------------9--------------9-|----9-10-11-12---------|
D|-----------------------------------------|-13--------------------|
A|-----------------------------------------|-----------------------|
E|-----------------------------------------|-----------------------|
 (Gtr 2)
b|-----------------------------------------|-----------------------|
G|-----------------------------------------|-----------------------|
D|-----------------------------------------|---------------------2-|
A|-7--6--4----4--7--6--4--4-------4---4--4-|----7--6--4----6--7----|
E|-----------------------------------------|---------------------4-|
B|-5--4--2----2--5--4--2--2-------2---2--2-|----5--4--2----4--5----|
 (Gtr 1)  Faster/Tempo III:                Play 5 Times (2:51 VERSE)
e|-----------------------------------------------------|
B|--12\------------------------------------------------|
G|.---------1st Time Only-----------------------------.|
D|.---------------------------------------------------.|
A|-----------------------------------------------------|
E|-----------------------------------------------------|
 (Gtr 2)
b|-----------------------------------------------------|
G|-----------------------------------------------------|
D|.---------------------------------------------------.|
A|.---------------------------------------------------.|
E|----8--7---------7--5----5--2-------8--7-------------|
B|----------0---0-------0--------0--0-------0--0--0----|
Now I guess I have to tab the rest of the song that might take some time
so this should keep you goin till I finish the rest.Stay Metal and stay (sic). 
| /  slide up
| \  slide down
| h  hammer-on
| p  pull-off
| ~  vibrato
| +  harmonic
| x  Mute note
=====================================================================
Comments