Dream Theater - Funeral For A Friend Chords & Tabs

 

Funeral For A Friend Chords & Tabs

Dream Theater Chords & Tabs

Version: 1 Type: Tab 0 ratings
1 star 2 stars 3 stars 4 stars 5 stars
comments

Funeral For A Friend Tab

Band- Dream Theater
Song- Funeral For A Friend

tablature key
'   bend
"   release bend
/   slide
h   hammer on
p   pull off
~   vibrato
tr  trill

intro

volume swells. i prefer just to hammer on without picking when the volume's set at zero, 
just do the volume control with the picking hand.

(1:30)
e|-------------------3-----4-----5-----6-----------12---------------|
b|-------------3----------------------------------------------------|
g|-0--2-----2-------------------------------------------------------|
d|-------------------------------------------2----------------------|
a|-------------------------------------------2----------------------|
e|------------------------------------------------------------------|

(2:02)     (bend 5 up slowly, then release)
e|--------------------------------------------------3--1------------------|
b|----2--------5'-----"5--3-----6--5--5--3--1-------------3-----5---------|
g|----------2------------------------------------2-----------3-----------2|
d|-2------------------------------------------------------------------2---|
a|------------------------------------------------------------------------|
e|------------------------------------------------------------------------|

(2:34) distortion
e|------------------------------------------------------------------------|
b|--------------5'-5----5'(6)"5-3-----------------8'-8~---8-6-5--6-5------|
g|-2-4~~-4-5-7--------------------5----7~~-10-7-9--------------------7----|
d|------------------------------------------------------------------------|
a|------------------------------------------------------------------------|
e|------------------------------------------------------------------------|

(2:49)     (pause)
e|----------------10'-10~-11---10---11p10-8-----------------------|
b|-5~~-5-6-8--------------------------------11-10~~---------------|
g|----------------------------------------------------------------|
d|----------------------------------------------------------------|
a|----------------------------------------------------------------|
e|----------------------------------------------------------------|
[ Tab from: http://www.guitartabs.cc/tabs/d/dream_theater/funeral_for_a_friend_tab.html ]
(2:58)                                (sweep)
e|----------11'-11~~~~~~--13'-13-14-13------------------------------|
b|-10-11-13---------------------------------12--12-13-13~~----------|
g|-----------------------------------------/------------------------|
d|----------------------------------------/-------------------------|
a|---------------------------------------/--------------------------|
e|--------------------------------------/---------------------------|

(3:11)
e|----------------------------------------------------------------|
b|-15'~~-15'15-13~~-\7-7/8-8~~ -7/8 9---9-10~~-12~~-13~~~~--------|
g|----------------------------------------------------------------|
d|----------------------------------------------------------------|
a|----------------------------------------------------------------|
e|----------------------------------------------------------------|


thus enters the piano solo, with some guitar chords and stuff. i didn't tab these out, 
if you need em, you gotta ask for em.

returning back...
(4:11)
e|----------------------------------------------------------------|
b|-----------------------6'6-6~~---------------5'5-5---3-h5p3-----|
g|-13-10-9-7----6~~6-7-9----------2--4---4-5-7----------------5---|
d|----------------------------------------------------------------|
a|----------------------------------------------------------------|
e|----------------------------------------------------------------|

(4:25)
e|----------------------------------------------------------------|
b|-------8-6tr8-6----3-----5~~~~-5'5-3-5-5-3-2---2----------------|
g|-5-7-9---------------3\2---------------------2---2--------------|
d|---------------------------------------------------2-0----------|
a|----------------------------------------------------------------|
e|----------------------------------------------------------------|

(4:33)           (artificial harmonics_ not quite sure 'bout those)
e|----------------------------------------------------------------|
b|-----------------AH-AH------------------------------------------|
g|-----------------3'3'3~~---10-9h10p9\7-5\4-4~~-5--5'-3-5p3------|
d|-----------4'4--------------------------------------------5~~---|
a|-4~~-4-5-7------------------------------------------------------|
e|----------------------------------------------------------------|

(4:42)
e|----------------------------------------------------------------|
b|-------8-6tr8-6-3-----5~~-5-5-----------------------------------|
g|-5-7-9------------3\2---------2~~-------------------------------|
d|----------------------------------------------------------------|
a|----------------------------------------------------------------|
e|----------------------------------------------------------------|
Comments