Dream Theater - Fortune In Lies Chords & Tabs

 

Fortune In Lies Chords & Tabs

Dream Theater Chords & Tabs

Version: 1 Type: Tab 0 ratings
1 star 2 stars 3 stars 4 stars 5 stars
comments

Fortune In Lies Tab

   
A Fortune In Lies - Guitar Tab


Author - Ernie Schnack


A Fortune in Lies tablature

by Dream Theater 
transcribed by Ernie Schnack 

bf:   full bend
bh:   half bend
p:    pull-off
h:    hammer-on
t:    two-hand tap


[----------------------------0-----------------------------------------------]
[----------------------------0---------------------8---5---------------------]
[----4--------7--6-----------9-----11---9-----4--------------0----2----4-----]
[----4-----------------------9----------------4--------------0----2----4-----]
[----2-----------------------7----------------2--------------x----0----2-----]
[----------------------------0-------------------------------3---------------]
  x4                      x2                   x2
[--------------------------2-2-----------------------------------------------]
[--2-2-------------------------5-5--------------3-3--------------------------]
[--------4-4------------------------4-4--------------5-5---------------------]
[--------------4-4-----------------------2-2--------------5-5----------------]
[-------------------2-2-----------------------------------------3-3----------]
[----------------------------------------------------------------------------]
  x4                   x2                            
[----------------------5-5---------------------------------------------------]
[-2-2---------------------8-8--------------2-2---------------------2---------]
[------4-4---------------------7-7--------------4-4--------------------------]
[-----------4-4---------------------5-5--------------4--4--------------------]
[----------------2-2-----------------------------------------2-2-------------]
[----------------------------------------------------------------------------]

[-----------------------15---12h13p12----------------------------------------]
[----12---13bf-13-----------------------13-------15bf------------------------]
[-9--------------------------------------------12----------------------------]
[----------------------------------------------------------------------------]
[----------------------------------------------------------------------------]
[----------------------------------------------------------------------------]

[----------------------------------------------------------------------------]
[-------------------9bh-9--10bf--(10)---------------------12---13-12---------]
[----------------9----------------------------12----14-12---14---------------]
[------7-9-10------------------------------14----15--------------------------]
[-7-8------------------------------------------------------------------------]
[----------------------------------------------------------------------------]

[---------12-----13-12-15-13-17-15-18-17---19bf---------16-17--------19------]
[-15-13-----15--------------------------------------19bf--------19-17--------]
[----------------------------------------------------------------------------]
[----------------------------------------------------------------------------]
[----------------------------------------------------------------------------]
[----------------------------------------------------------------------------]

[-/14------------------------------------------------------------------------]
[-----14-15------------------------------------------------------------------]
[-------------14-13--------------------------------------------13-13-14-14---]
[---------------------16-15--------------------15-15-16-16-------------------]
[-----------------------------17-16-16-17-17---------------------------------]
[----------------------------------------------------------------------------]

[----------------------------------------------------------------------------]
[-15-15-14-14---14-15-14-12--------------------------------------------------]
[-----------------------------------13-14-13-12------------------------------]
[----------------------------------------------------11-12-11-9--------------]
[------------------------------------------------------------------11-12-11-9]
[----------------------------------------------------------------------------]

[----------------------------------------------------------------------------]
[-----------------------------------------------------------------5--6-------]
[----------------------(drum fill)--------------------------------4--5-------]
[----7---6---------6------------------------4--5------------------2--3-------]
[----5---4---------4--------------\---------2--3------------------2--3-------]
[-0---------------------------------\-2----------------2---2-2-2-------------]
                                   ^(I'm sure you can ^figure out the rhythm

[----------------------------------------------------------------------------]
[----------------------------------------------------------------------------]
[---------------------------------------------7-6----------------------------]
[keyboard----------6--7--9-----4-------------------6-4-----------------------]
[---fill-----------4--5--7-----2------------------------5-4------------------]
[-0--000------------------------3--2-------------------------5-4-------------]

  x2                             x2
[------------------------------|---------------------------------------------]
[------------------------------|---------------------------------------------]
[--------------------4---------|--------7---9--------------------------------]
[---------------2----4-----5---|----4---7---9---9------5---------------------]
[---------------2----2-----5---|----4---5---7---9------5---------------------]
[----2--2-2-2---0----------3---|----2-----------7------3---------------------]

  for first chorus             for second chorus
[---------------------------|------------------------------------------------]
[---------------------------|------------------------------------------------]
[-------4---7-------5-4-----|------------------------------7-7-7-9-9---------]
[---6-----------------------|-------------------7-7-8-8-8--------------------]
[---------------6-----------|----5-5-5-7-7-7---------------------------------]
[---------------------------|------------------------------------------------]
                                          _________________ _________________
 x2                           x2         | 1               | 2
[----------------------------|-----------|-----------------|-----------------]
[----------------------------|-----------|-----------------|-----------------]
[----------------------------|---------7-|-----------------|-----------------]
[---------7------------------|-----------|-------7-5-------|--3-2-0----------]
[------------------7-5-------|--5-5-5----|--5--8------5----|--------3-2-1----]
[--5-5-5-----5---8-----8-----|-----------|-----------------|-----------------]

[------------0-------------0-------------0----------------1------------------]
[-----1--------------1-------------3--------3------3-------1-----------------]
[--------4--------------4-------------0---------------3----------------------]
[----------------------------------------------------------------------------]
[-0--------------0------------------------------1----------------------------]
[--------------------------------3-------------------------------------------]

[----------------------------------------------------------------------------]
[-------------------------------------------------5----6---------------------]
[---------3---------------------------------------4----5---------------------]
[--------------3--2--0----------------------------2----3---------------------]
[-1-1-1-----------------3--1-0--------------------2----3---------------------]
[-----------------------------------0--0-0-0---------------------------------]

  'Can you show me your gold...'
[---0---------------------0--------------------------------------------------]
[---0---------------------0--------------------------------------------------]
[---9----5-----7----10----9-----5-----4----2---------------------------------]
[---9----5-----7----10----9-----5-----4----2------5--------------------------]
[---7----3-----5----8-----7-----3-----2----0------5--------------------------]
[---0---------------------0-----------------------3-----2--222-2-2-2-2-------]


[-0--------------------------------------------------------------------------]
[-0--------------------------------------------------------------------------]
[-9--------------7-----6-----------------/6----------------------------------]
[-9------9------7-----6------------------------------------------------------]
[-7------9------5-----4------------------------------------------------------]
[-0------7-------------------------------------------------------------------]
solo
    t          t     t     t     t      t     t
[--14p12p10p9-14p12-14p10-14p9-----------------------------------------------]
[--------------------------------14p12-14p10-14p9----------------------------]
[----------------------------------------------------------------------------]
[----------------------------------------------------------------------------]
[----------------------------------------------------------------------------]
[----------------------------------------------------------------------------]

   t       t              t           t         t     t     t              
[----------------------------------------------------------------------------]
[----------------------------------------------------------------------------]
[-14p9h11-16p9h11------------------------------14p13-14p11-14p9--------------]
[-------------------------14p11p9--------------------------------------------]
[-------------------------------------14p9h11--------------------------------]
[----------------------------------------------------------------------------]

    t    t    t    t    t    t    t    t
[----------------------------------------------------------------------------]
[----------------------------------------------------------------------------]
[--14p7-14p9-14p7-14p6-14p7-14p6-14p4-14p6-----------------------------------]
[----------------------------------------------------------------------------]
[----------------------------------------------------------------------------]
[----------------------------------------------------------------------------]

   t     t      t    t     t     t     t       t
[----------------------------------------------------------------------------]
[----------------------------------------------------------------------------]
[--6p2h4-6p2h4-7p4h6-7p4h6-9p6h7-9p6h7-11p7h9-11p7h9-------------------------]
[----------------------------------------------------------------------------]
[----------------------------------------------------------------------------]
[----------------------------------------------------------------------------]

   t     t      t      t      t       t      t
[----------------------------------------------------------------------------]
[--9p5h7-9p5h7-10p7h9-10p7h9-12p9h10-12p9h10-14p10h12------------------------]
[----------------------------------------------------------------------------]
[----------------------------------------------------------------------------]
[----------------------------------------------------------------------------]
[----------------------------------------------------------------------------]

   t        t        t        t        t
[----------------------------------------------------------------------------]
[-14p10h12-15p12h14-15p12h14-17p14h15-17p14h15-------------------------------]
[-------------------------------------------------------------------16bf-----]
[----------------------------------------------------------------------------]
[----------------------------------------------------------------------------]
[----------------------------------------------------------------------------]


[-----------------------------------17/20-17---------------------------------]
[--------------------------------x-------------17----------------------------]
[-16bf--14----------------14--------------------17---------------------------]
[------------------------14----------------------------19--------------------]
[--------------------15-----------------------------------19-----------------]
[----------------17-------------------------------------------17-------------]


[---------------------14/17-14---------------------------------------11/15---]
[------------------x-------------14---------------------------------x--------]
[--------------11-------------------14---------------------------8-----------]
[----------11---------------------------16--------------------8--------------]
[------12-----------------------------------16------------10-----------------]
[--14-------------------------------------------14----11---------------------]


[-11-----------------------------------16------16----------------------------]
[-----11-----------------------------------x-x-----x-14-----17bfr-17bf-------]
[---------12-----------------------------------------------------------------]
[-------------13------------14-14--------------------------------------------]
[-----------------13---------------------------------------------------------]
[---------------------11-----------------------------------------------------]


[----------------------------------------------------------------------------]
[-14-14-15-15-14-14-15-15-17-17-15-14-14-1212-10-12bf------------------------]
[----------------------------------------------------------------------------]
[----------------------------------------------------------------------------]
[----------------------------------------------------------------------------]
[----------------------------------------------------------------------------]


[----------------------------------------------12---10h12p10\8h10p8\5-8------]
[-------------------------------------------10-------------------------------]
[--6h7h9p7p6\4h6p4\2---2------------------9----------------------------------]
[-------------------4----4---------------------------------------------------]
[----------------------------------------------------------------------------]
[----------------------------------------------------------------------------]


[-5--------------------------------------------------------------------------]
[-------/12--10h12p10\8h10p8\6h8p6\5h6p5-------------------------------------]
[-----------------------------------------------------7p5p4------------------]
[-------------------------------------------------------------7p5------------]
[-------------------------------------------------------------------8p7p5\3--]
[----------------------------------------------------------------------------]

   p.h    p.h
[----------------------------------------------------------------------------]
[-------------------------------------------------------------------5-5-0-0-6]
[----------------2-2-2-4-4-4-2-2-5-5-5-2-2-4-4-2-5-5-2-4---------------------]
[----------------------------------------------------------------------------]
[--5---3-5-------------------------------------------------------------------]
[----------------------------------------------------------------------------]


[--------------------/12-12-12\-/13-13-13\-/15-15-15\/17-17-17\--------------]
[-5-0-0-5-0-0-6--------------------------------------------------------------]
[----------------------------------------------------------------------------]
[----------------------------------------------------------------------------]
[----------------------------------------------------------------------------]
[----------------------------------------------------------------------------]
                                            'Now you've made a fortune...'
                                              (improv on A pentatonic)

[-/19-19-19\/20-20-20\-/22-22-22-22bf-22bf-----------------------------------]
[----------------------------------------------------------------------------]
[----------------------------------------------------------------------------]
[----------------------------------------------------------------------------]
[----------------------------------------------------------------------------]
[----------------------------------------------------------------------------]


[----------------------------------------------------------------------------]
[---------5--5-----------6-6-----------8--8-----------11--11-----------------]
[---------4--4-----------5-5-----------7--7-----------10--10-----------------]
[---------2--2-----------3-3-----------5--5-----------8----8-----------------]
[-0-0-0----------0-0-0--------0-0-0----------0-0-0---------------------------]
[----------------------------------------------------------------------------]


[----------------------------------------------------------------------------]
[----------------------------5-----6-----------------------------------------]
[----------------------------4-----5-----------------------------------------]
[----------------------------2-----3-----------------------------------------]
[----------------------------2-----3-----------------------------------------]
[--0--0-0-0--0---------------------------------------------------------------]


For all the heavy one-note chugging parts I just put the note and I'll leave 
you to figure out the rhythm.... everything else is prettty straight forward 

sorry for all the cramming but i wanted to save space 

if the sweeping part confuses you-start w/ your pinky and finish w/ your 
index finger----the reason I put 'improv on A' at the end is because Petrucci 
himself does it differently every time he plays it.... 
[ Tab from: http://www.guitartabs.cc/tabs/d/dream_theater/fortune_in_lies_tab.html ]
well... have fun! comments?questions?corrections? send them to: 
ernie@mail.pananet.com (make sure u maximize this before you read it) 

==========================================
Another Version
==========================================

Author - Jeff Chew/Thomas De George

by Dream Theater
transcribed by Jeff Chew (jc309@columbia.edu) & Thomas De George

Key:

h      = hammer/pull
/      = slide
(1/2b) = half bend
(fb)    = full bend
(fdb)  = full double bend
(ah)   = artificial (pinched) harmonic
T      = tap
(wb)   = whammy bar "trill" (hit bar quickly)

E-----------------------------------------------------------------------------
B-----------------------------------------------------------------------------
G--------7----6---------11----9---------7----9--------------------------------
D------------------2----------------------------------------------------------
A---9--------------2---------------9--------------5----7----9-----------------
E---7--------------0---------------7--------------3----5----7-----------------

                                                              _______________
                                                              |1.
E-||----------------------------------------------------------|---------------
B-||.---------------------------------------------------------|---------------
G-||--6--4-----------6--4-----------6--4-----------6--4-------|11--9----------
D-||--------4--4--4--------4--4--4--------4--4--4--------4--4-|-------9--9--9-
A-||.---------------------------------------------------------|---------------
E-||----------------------------------------------------------|---------------

    muted....................................................................
    
  _________________________________________________  _______________________
                                                   ||2.
E--------------------------------------------------||-------------------------
B-------------------------------------------------.||-------------------------
G---11--9-----------7--5------------7--5-----------||--14--12-----------------
D----------9--9--9---------5--5--5--------5--5--5--||----------12--12--12-----
A-------------------------------------------------.||-------------------------
E--------------------------------------------------||-------------------------

    muted....................................................................
    
  ___________________________________
                                     
E------------------------------------|------------------------------15--15----
B------------------------------------|-------12-----14(1/2b)--14--------------
G---14--12--------------6--4---------|---11-----------------------------------
D-----------12--12--12--------4------|----------------------------------------
A---------------------------------9--|----------------------------------------
E---------------------------------7--|----------------------------------------

muted.......................
  

E---12------------------------------------------------------------------------
B-------13---------15(fdb)-------------------------------------------12-------
G-----------12---------------------------------------13(1/2b)---13---14(fdb)--
D-----------------------------------------------------------------------------
A----------------------------------------12--14--15---------------------------
E----------------------------12--13--16---------------------------------------

E---------------------------------------------------------------15------15----
B---------------------------------------15------15--16--15--16------18--------
G---------------14------14--15--14--15------17--------------------------------
D---15--14--15------17--------------------------------------------------------
A-----------------------------------------------------------------------------
E-----------------------------------------------------------------------------

E-------15--18--17---------20(fb)---------------17--18----------20------------
B---18---------------------------------20(fb)-----------20--17----------------
G-----------------------------------------------------------------------------
D-----------------------------------------------------------------------------
A-----------------------------------------------------------------------------
E-----------------------------------------------------------------------------

E-----------------------------------------------------------------------------
B---/19--15--14--15--14------14-----------------------------------------------
G------------------------16------16--14------------------------------13--14---
D----------------------------------------16------------------15--16-----------
A--------------------------------------------17--16--16--17-------------------
E-----------------------------------------------------------------------------

E-----------------------------------------------------------------------------
B-----------------------------------------------------------------------------
G---13--14--13-14-16-14-13-14-16-14-13----------------------------------------
D--------------------------------------16-14-12-14-16-14-12-------------------
A-----------------------------------------------------------16-14-12-14-16-14-
E-----------------------------------------------------------------------------

E-----------------------------------------------------------------------------
B-----------------------------------------------------------------------------
G-----------------------------------------------------------------------------
D-----------------------------------------------------------------------------
A---12-------------------------------------------11---------------------------
E------16-14-12-14-16-14-12-10-12-14-12-10\9-----9----------------------------

E---------------------------------------------------|-------------------------
B---------------------------------------------------|-------------------------
G---------------------------------------------------|-------------------------
D--\2--4--5-----------------------------------------|----6--7--9--------------
A--\2--2--3-----------------------------------------|----4--5--7--6--5--4-----
E--\0-----------------------------------------------|-------------4--3--2-----

    (You figure out the rhythm to this for yourself)

                                   (3X) 
E--------------------------------||------------------------------||-----------
B--------------------------------||.----------------------------.||-----------
G---13--11----------6--4---------||------------------------------||-----------
D-----------12--11--------5--4---||---------7----9---------------||-----------
A--------------------------------||.---4----5----7----9----12---.||-----------
E--------------------------------||----2--------------7----10----||-----------

        muted...................    Rhy.Fig.I
        

E----------------------------------||--------------------------||-------------
B-----------------------------5--4-||.------------------------.||.--------3---
G-----------------------7----------||---------3----------------||-------------
D--------7----9---6--9-----5-------||--------------------------||---0-0-0-----
A---4----5----7--------------------||.--0-0-0---0-0-0-3-2-3-2-.||.------------
E---2------------------------------||--------------------------||-------------

E------------------||------------0-----------0-----------3-----------1--------
B-----------------.||------------0-----------0-----------0-----------1--------
G------------------||---------2-----------2-----------------------3-----------
D---0-0-0-3-2-3-2--||------2-----------2--------------0--------3--------------
A-----------------.||---0-----------0--------------2--------1-----------------
E------------------||---------------------------3-----------------------------

                       clean
                          


E------------0-----------0-----------3--|-------------------------------------
B------------0-----------0-----------0--|-------------------------------------
G---------2-----------2-----------------|-------3-----2-----------------------
D------2-----------2--------------0-----|---------------5-3-2-----------------
A---0-----------0--------------2--------|-1-1-1---------------5-3-1-----------
E---------------------------3-----------|---------------------------5---------

                          end Rhy.Fig.I   distortion
                            


E------------------------------------------|---------|------------------------
B------------------------------------------|---------|------------------------
G------------------------------------------|---------|------------------------
D---2--------------------------------------|---------|------------------------
A---2--------------------------------------|---4--5--|------------------------
E---0--------------------------------------|---2--3--|------------------------


   (You figure out the rhythm for yourself)            Rhy.Fig.I


E----------------------------------------------|------------------------------
B----------------------------------------------|------------------------------
G----------------------------------------------|------------------------------
D---2----5----7---------2----5-----------------|------------------------------
A---2----3----5----3----2----3----9----7----5--|---4--------------------------
E---0--------------1----0---------7----5----3--|---2--------------------------

                                                 (figure out rhythm)


E-----------------------------------------------------------------------------
B-----------------------------------------------------------------------------
G-----------------------------------------------------------------------------
D---9---------7----6----------------------------------------------------------
A---7----9----5----4----------------------------------------------------------
E--------7--------------------------------------------------------------------



  Guitar solo
E---12-10-9-7-----------12-10-9-7-----------9-7-5-4---------7-5-4-2-----------
B-------------12-10-9-7-----------12-10-9-7---------9-7-5-3---------7-5-3-2---
G-----------------------------------------------------------------------------
D-----------------------------------------------------------------------------
A-----------------------------------------------------------------------------
E-----------------------------------------------------------------------------

T         T         T         T        T       T       T       T


E-------------------------------7-5-4-2---------------------------------------
B---------------------------------------7-5-3-2-8-5-3-2-10-5-3-2-8-5-3-2------
G---6-4-2-1-------------------------------------------------------------------
D-----------6-4-2-0-----------------------------------------------------------
A-------------------5-4-2-0-2-4-----------------------------------------------
E-----------------------------------------------------------------------------

    T       T       T           T       T       T        T       T


E-----------------------------------------------------------------------------
B---7-5-3-2-------------------------------------------------------------------
G-----------6-4-2-4/6--6-2-4-6-2-4-6-2-4-6-2-4-7-4-6-7-4-6-7-4-6-7-4-6-9-6-7--
D-----------------------------------------------------------------------------
A-----------------------------------------------------------------------------
E-----------------------------------------------------------------------------

    T       T          T     T     T     T     T     T     T     T     T


E-----------------------------------------------------------------------------
B-----------------------------------------------------------------------------
G---9-6-7-9-6-7-9-6-7-11-7-9-11-7-9-11-7-9-11-7-9-13-9-11-13-9-11-13-9-11-----
D-----------------------------------------------------------------------------
A-----------------------------------------------------------------------------
E-----------------------------------------------------------------------------

    T     T     T      T      T      T      T      T       T       T


E-----------------------------------------------------------------------------
B-----------------------------------------------------------------------------
G---13-9-11-14-11-13-14-11-13-14-11-13-14-11-13-16-13-14-16-18-16-14-13-14-16-
D-----------------------------------------------------------------------------
A-----------------------------------------------------------------------------
E-----------------------------------------------------------------------------

     T       T        T        T        T        T           T


E----------------|------------------12-17-12----------------|-----------------
B----------------|---------------13----------13-------------|-----------------
G---18-13-14-13--|------------14----------------14----------|-----------------
D----------------|---------14----------------------14-------|-----------------
A----------------|---12-15----------------------------15-12-|-----------------
E----------------|------------------------------------------|-----------------

     T                                  h


E-----------------9-14-9---------------|-----------6-11-6---------------------
B--------------10--------10------------|---------7--------7-------------------
G-----------11--------------11---------|-------8------------8-----------------
D--------11--------------------11------|-----8----------------8---------------
A---9-12--------------------------12-9-|-6-9--------------------9-6-----------
E--------------------------------------|--------------------------------------

h                                h


E-----------------------------------------------------------------------------
B---14-10-14-19-14-10-19-14-10-19-14-10-17(fdb)--14-15-17-15-14-15-17-15-14---
G-----------------------------------------------------------------------------
D-----------------------------------------------------------------------------
A-----------------------------------------------------------------------------
E-----------------------------------------------------------------------------

              T        T        T


E---------------------------------------------------------|----------12-------
B---15-17-15-14-14----------------------------------------|----13-15----------
G---------------16(fb)&(wb)-16-14-------------------------|-14----------------
D---------------------------------16-14-------------------|-------------------
A---------------------------------------16-14-------------|-------------------
E---------------------------------------------17-14-17-14-|-------------------

E-----------------------------------------------------------------------------
B---15-13-12-13-12------------------------------------------------------------
G------------------14/(wb)16(wb)\14--10-12-14-12-10---------------------------
D---------------------------------------------------14-12-10-12-14-12---------
A---------------------------------------------------------------------14-12---
E-----------------------------------------------------------------------------

E-----------------------------------------------------------------------------
B-----------------------------------------------------------------------------
G-----------------------------------------------------------------------------
D------------10-12-14-12-10---------------------------------------------------
A---10-12-14----------------14-12-10------------------------------------------
E------------------------------------13-12-12(ah)&(1/2b)-12-------------------

E-----------------------------------------------------------------------------
B---------------------------------------------------------------------10-12---
G---2-4-5-2-4-5-4-5-7-4-5-7-5-7-9-5-7-9-7-9-10-7-9-10-9-10-12-9-10-12---------
D-----------------------------------------------------------------------------
A-----------------------------------------------------------------------------
E-----------------------------------------------------------------------------

E-------------------------------------/15-/17-/19-/20-/22-/22(fb)-/22(fb)-----
B---13-10-12-13-12-13-15-12-13-15-/17-----------------------------------------
G-----------------------------------------------------------------------------
D-----------------------------------------------------------------------------
A-----------------------------------------------------------------------------
E-----------------------------------------------------------------------------


  (Now improv on an A Blues scale on the 17th fret)


E---------0---------0---------0---------0-------------------------------------
B---------0---------0---------0--------11-------------------------------------
G---------9--------10--------12--------10-------------------------------------
D---------9--------10--------12---------0-------------------------------------
A---0-0-0----0-0-0-----0-0-0-----0-0-0----------------------------------------
E-----------------------------------------------------------------------------

E-----------------------------------|----------||
B-----------------------------------|----------||
G-----------------------------------|----------||
D---2-------------------------------|--4----5--||
A---2-------------------------------|--2----3--||
E---0-------------------------------|----------||
   (figure out rhythm for yourself)


-------------------------

Jeff Chew
jc309@columbia.edu

P.S.  Thanks to Dr. Mosh!
Comments