Dream Theater - Fatal Tragedy Chords & Tabs

 

Fatal Tragedy Chords & Tabs

Dream Theater Chords & Tabs

Version: 2 Type: Bass Tab 0 ratings
1 star 2 stars 3 stars 4 stars 5 stars
comments

Fatal Tragedy Bass Tab

   
                            SCENE 5: FATAL TRAGEDY
                          As recorded by DREAM THEATER

Music by DREAM THEATER
Transcribed by Joe Britton - Larrylaffer_uk@yahoo.co.uk

Gtr I (B E A D G C)

                Q=142
 4/4
                Gtr I
  Wx16          W          +W           W           W
|-------------|----------|------------|----------|--------|
|-------------|----------|------------|----------|--------|
|-------------|----------|------------|----------|--------|
|-------------|----------|------------|----------|--------|
|-------------|-0--------|-(0)--------|-0--------|-12\----|
|-------------|----------|------------|----------|--------|


  H.      Q    H.      E +E      W          E E Q  E E Q    Q  E E Q  Q
|------------|-----------------|----------|---------------|----------------|
|------------|-----------------|----------|---------------|----------------|
|------------|-----------------|----------|---------------|----------------|
|-2-------2--|-0---------------|----------|---------------|-----------2----|
|------------|---------3-(3)b5-|-3--------|-0-2-3--0------|----0-2-3-------|
|------------|-----------------|----------|---------------|----------------|


  W          +E  E E E E E Q     E E Q  E E Q    Q  E E Q  Q
|----------|-------------------|---------------|----------------|
|----------|-------------------|---------------|----------------|
|----------|---------2-5-------|---------------|----------------|
|-1--------|-(1)-1-4-----4-----|---------------|-----------2----|
|----------|---------------3\--|-0-2-3--0------|----0-2-3-------|
|----------|-------------------|---------------|----------------|


                                            6/4
                           ~
  W          +E  E E E E E Q    H.      Q    H.      E +E    H
|----------|------------------|------------|----------------------|
|----------|------------------|------------|----------------------|
|----------|---------5-8------|------------|----------------------|
|-4--------|-(4)-4-7-----7----|-2-------2--|-0--------------------|
|----------|---------------6--|------------|---------3-(3)b5-3----|
|----------|------------------|------------|----------------------|


 4/4
  E E Q  E E Q    Q  E E Q  Q    W             +E  E E E E E Q
|---------------|--------------|-------------|--------------------|
|---------------|--------------|-------------|--------------------|
|---------------|--------------|-------------|---------2-5--------|
|---------------|-----------2--|-1tr2--------|-(1)-1-4-----4------|
|-0-2-3--0------|----0-2-3-----|-------------|---------------3----|
|---------------|--------------|-------------|--------------------|


  E E Q  E E Q    Q  E E Q  Q    W             +E  E E E E E Q
|---------------|--------------|-------------|--------------------|
|---------------|--------------|-------------|--------------------|
|---------------|--------------|-------------|---------5-8--------|
|---------------|-----------2--|-4tr5--------|-(4)-4-7-----7------|
|-0-2-3--0------|----0-2-3-----|-------------|---------------6----|
|---------------|--------------|-------------|--------------------|


  H.      Q    H.      E +E      H.      E E   W
|------------|-----------------|-------------|------|
|------------|-----------------|-------------|------|
|------------|-----------------|-------------|------|
|-2-------2--|-0---------------|-------------|------|
|------------|---------3-(3)b5-|-3-------2-3-|-0----|
|------------|-----------------|-------------|------|


                           |--3--|
  H.      +E  E   Q    Q   E  E  E  Q     Q  +E  E Q  Q
|---------------|-----------------------|------------------|
|---------------|-----------------------|------------------|
|---------------|-9--/13--11h13p11------|----------4-------|
|-2-------(2)S9-|------------------14\--|------------------|
|---------------|-----------------------|-2--(2)-2----2----|
|---------------|-----------------------|------------------|


  +Q   E E  E E Q     W          +W           W          +Q    H.
|-------------------|----------|------------|----------|-------------|
|-------------------|----------|------------|----------|-------------|
|------4-4-/4-2-4\--|----------|------------|----------|-------------|
|-------------------|----------|------------|----------|-------------|
|-(2)---------------|-0--------|-(0)--------|-0--------|-(0)--12\----|
|-------------------|----------|------------|----------|-------------|


  E E E E E E E E   E E E E  E  E  E  E
|-----------------|---------------------|
|-----------------|---------------------|
|-----------------|---------------------|
|-----------------|---------------------|
|-0-0-0-0-0-0-0-0-|-0-0-0-0-12-12-12-12-|
|-----------------|---------------------|


  E E E E E E E E    E  E  E  E  Q   E E
|-----------------|------------------------|
|-----------------|------------------------|
|-----------------|------------------------|
|-----------------|------------------------|
|-0-0-0-0-0-0-0-0-|-12-12-12-12-12\--0-1---|
|-----------------|------------------------|


  H.      E E   H.      E E   H.      +E  E   H.      E E   H.      +E  E
|-------------|-------------|---------------|-------------|------------------|
|-------------|-------------|---------------|-------------|------------------|
|-------------|-------------|---------------|-------------|------------------|
|-------------|-----------2-|-4-------(4)---|-------------|------------------|
|-2-------2-4-|-5-------5---|-------------0-|-4-------4-5-|-7-------(7)-7----|
|-------------|-------------|---------------|-------------|------------------|


                    3/4
  Q  +E  E E E E E   Q  Q  E E   Q  Q  E E
|------------------|-----------|------------|
|------------------|-----------|------------|
|------------------|-----------|------------|
|--------4-2-4-----|-----------|---------2--|
|-7--(7)-------4-0-|-2--2--2-4-|-5--5--5----|
|------------------|-----------|------------|


  Q  Q  +E  E   Q.   E +E  E   Q  +E    E  +Q
|-------------|--------------|------------------|
|-------------|--------------|------------------|
|-------------|--------------|------------------|
|-4--4--(4)---|--------------|--------/12-(12)--|
|-----------0-|-4----4-(4)-4-|-5--(5)-----------|
|-------------|--------------|------------------|


   E.  S  +E   E  +S   E.    H.
|-------------------------|--------|
|-------------------------|--------|
|-14--13-(13)-------------|--------|
|-------------14-(14)-11--|--------|
|-------------------------|-14-----|
|-------------------------|--------|


   7/8            2/4    7/8             2/4
    E E E Q  E E   H      E E E Q   E E   H
||---------------|------|---------------|-------||
||o--------------|------|---------------|------o||
||---------------|------|-------------9-|-------||
||-----------6-9-|------|-6-7-9-7--10---|-------||
||o-5-7-8-7------|------|---------------|------o||
||---------------|------|---------------|-------||


 9/8
  S S S S E S S S S E S S S S S S
|---------------------------------|
|---------------------------------|
|-7-7-------5-5-2-----------------|
|-----7-----------2---------2-----|
|-------8-5---------3-2-3-5---2-3-|
|---------------------------------|


   4/4
    S S E E E E S S E E   Q  S S E S S E S S E   6x
||----------------------|------------------------||
||o---------------------|-----------------------o||
||----------------------|------------------------||
||----------------------|------------------------||
||o-0-0-0-0-----0-0-0-0-|----0-0-0-0-0-0-0-0-0--o||
||----------------------|------------------------||


    S S E  Q.   S S E E   Q  S S E S S E S S E   4x
||----------------------|------------------------||
||o---------------------|-----------------------o||
||----------------------|------------------------||
||----------------------|------------------------||
||o-0-0-0-12\---0-0-0-0-|----0-0-0-0-0-0-0-0-0--o||
||----------------------|------------------------||


  E E E E E S S E E   S S E E E E E E E
|-------------------|-------------------|
|-------------------|-------------------|
|---------1-----2-4-|-----2-1-----------|
|-2-3-0-2---2-2-----|-2-2-----2-3-2-0-2-|
|-------------------|-------------------|
|-------------------|-------------------|


  E E E E E S S E E   S S E E E E E E E
|-------------------|---------------------|
|---------------0-2-|---------------------|
|---------1---------|-----2-1-------------|
|-0-3-0-2---2-2-----|-2-2-----2-3-2-0-2---|
|-------------------|---------------------|
|-------------------|---------------------|


  E E E E E S S E E   S S E E E E E E E   E E E E E E S S E
|-------------------|-------------------|--------------------|
|---------------2-4-|-------------------|--------------------|
|---------1---------|-----2-1-----------|-------------1-4-2--|
|---3-0-2---2-2-----|-2-2-----2-3-2-0-2-|-------0-1-2--------|
|-3-----------------|-------------------|-0-2-3--------------|
|-------------------|-------------------|--------------------|


  +S  S S S S S S S S S S S S S S S   E S S E S S E S S E E
|-----------------------------------|------------------------|
|-----------------------------------|-4-----4-----2-----0----|
|-(2)---2-1-0-2-------2-------------|---------------------4--|
|---------------4-3-2---0-1-0-------|---2-2---2-2---2-2------|
|-----0-----------------------3-2-3-|------------------------|
|-----------------------------------|------------------------|


              |-3-|
  S S E E E E S S S E E   E E E E E E E E   E E E E E E E E
|-----4-3---------------|-----------------|------------------|
|---------4-5-4h5p4-2-0-|---1-2-----------|------------------|
|-----------------------|-4---------------|------------------|
|-2-2-------------------|-------4-3---2-0-|-------4-3-2------|
|-----------------------|-----------2-----|-2-0-2-------2-3--|
|-----------------------|-----------------|------------------|


  W          +W           W          +W
|----------|------------|----------|------------|
|----------|------------|----------|------------|
|----------|------------|----------|------------|
|----------|------------|----------|------------|
|-0--------|-(0)--------|-0--------|-(0)--------|
|----------|------------|----------|------------|


  E E E E H      S S E E E Q  S S E
|--------------|-----------------------|
|--------------|-----------------------|
|--------------|-----------------------|
|---------7----|-----------7-----------|
|-0-0-0-0------|-0-0-0-0-0----0-0-0----|
|--------------|-----------------------|


  Q S S E H      S S E E E Q  S S E   H.      E E   Q    H    E E
|--------------|--------------------|-------------|-----------------|
|--------------|--------------------|-------------|-----------------|
|--------------|--------------------|-------------|-----------------|
|-7-------7----|-----------7--------|-------------|-0--/12----0-2---|
|---0-0-0------|-0-0-0-0-0----0-0-1-|-2-------2-4-|-----------------|
|--------------|--------------------|-------------|-----------------|


  Q  E E +E  E E E   Q  E E +E  E E E   Q  E E +E  E  E E   Q.   E E E E E
|------------------|------------------|-------------------|------------------|
|------------------|------------------|-------------------|------------------|
|------------------|------------------|--------------/9-9-|-9\---------------|
|-4--4-4-(4)-4-4---|------------------|-2--2-2-(2)-2------|------4-2-4-------|
|----------------0-|-4--4-4-(4)-4-4-5-|-------------------|------------4-0---|
|------------------|------------------|-------------------|------------------|


 6/8
  E E E E E E   E E E E E E   E E E E E E   E E E E E E   E E E E E E
|-------------|-------------|-------------|-------------|---------------|
|-------------|-------------|-------------|-------------|---------------|
|-------------|-------------|-------------|-------------|---------------|
|-------------|-0-0-0-0-0-2-|-4-4-4-4-4---|-------------|---------------|
|-2-2-2-2-2-4-|-------------|-----------0-|-4-4-4-4-4-4-|-5-5-5-5-5-5---|
|-------------|-------------|-------------|-------------|---------------|


             4/4
  Q.   Q.     H     H          +H         H       E E H.        +W
|-----------|----------------|------------------|-------------|--------|
|-----------|----------------|------------------|-------------|--------|
|-----------|------/9tr11----|-(9tr11)----9\----|-------------|--------|
|-4---------|-2--------------|------------------|-------------|--------|
|------4----|----------------|------------------|-0-2-3-------|-(3)----|
|-----------|----------------|------------------|-------------|--------|


  Wx3          S S S S +S  S S S +S  S S S +S  S E
|------------|-------------------------------------|
|------------|-------------------------------------|
|------------|-------------------------------------|
|------------|-------5-(5)-----4-(4)-----3-(3)---2-|
|------------|-0-2-3-------0h3-------0h3-------0---|
|------------|-------------------------------------|


    S S S S +S  E S S S S S +S  E S
||------------------------------------|
||o-----------------------------------|
||------------------------------------|
||------------------------------------|
||o-0-2-3-0-(0)-0-0-0-2-3-0-(0)-0-0---|
||------------------------------------|


  S S S S +S  E S S S S S +S  E S   S S S S +S  E S S S S S +S  E S
|---------------------------------|----------------------------------|
|---------------------------------|----------------------------------|
|---------------------------------|----------------------------------|
|---------------------------------|----------------------------------|
|-0-2-3-0-(0)-0-0-0-2-3-0-(0)-0-0-|-0-2-3-0-(0)-0-0-0-2-3-0-(0)-0-0--|
|---------------------------------|----------------------------------|

[ Tab from: http://www.guitartabs.cc/tabs/d/dream_theater/fatal_tragedy_btab_ver_2.html ]
                                         6/
  S S S S +S  S S S +S  S S S +S  S E
|--------------------------------------||-|
|-------------------------------------o||-|
|--------------------------------------||-|
|-------5-(5)-----4-(4)-----3-(3)---2--||-|
|-0-2-3-------0h3-------0h3-------3---o||-|
|--------------------------------------||-|


 4
    S S S S +S  S S S E S S S E S S S E S S E     4x
||------------------------------------------------||
||o----------------------------------------------o||
||------------------------------------------------||
||--7-7-7-7-(7)-7-7-7-7-7-7-7-7-7-7-7-7-7-7-7-----||
||o----------------------------------------------o||
||------------------------------------------------||


    S S S S S S S S S S S S S S S S S S S S S S S S  4x
||---------------------------------------------------||
||o-------------------------------------------------o||
||---------------------------------------------------||
||---------------------------------------------------||
||o-0-0-0-0---0-0-0-0---0-0-0-0---0-0-0-0---0-0-0---o||
||---------------------------------------------------||


 4/4
      S E. E S E S E Q     4x
|-||-----------------------||
|-||o---------------------o||
|-||-----------------------||
|-||-----------------------||
|-||o-2-2----2-2-2-2------o||
|-||-----------------------||


    S S S S +S  E S S S S S +S  E S  3x
||-----------------------------------||
||o---------------------------------o||
||-----------------------------------||
||-----------------------------------||
||o-0-2-3-0-(0)-0-0-0-2-3-0-(0)-0-0-o||
||-----------------------------------||


  S S S S +S  S S S +S  S S S +S  S E     S E. E S E S E Q     4x
|-------------------------------------||-----------------------||
|-------------------------------------||o---------------------o||
|-------------------------------------||-----------------------||
|-------5-(5)-----4-(4)-----3-(3)---2-||-----------------------||
|-0-2-3-------0-3-------0-3-------0---||o-2-2----2-2-2-2------o||
|-------------------------------------||-----------------------||


    S S S S +S  E S S S S S +S  E S
||-----------------------------------||
||o---------------------------------o||
||-----------------------------------||
||-----------------------------------||
||o-0-2-3-0-(0)-0-0-0-2-3-0-(0)-0-0-o||
||-----------------------------------||


  S S S S +S  S S S +S  S S S +S  S E     S E. E S E S E Q     3x
|-------------------------------------||-----------------------||
|-------------------------------------||o---------------------o||
|-------------------------------------||-----------------------||
|-------5-(5)-----4-(4)-----3-(3)---2-||-----------------------||
|-0-2-3-------0-3-------0-3-------0---||o-2-2----2-2-2-2------o||
|-------------------------------------||-----------------------||


  S S S S +S  E S S S S S +S  E S
|---------------------------------|
|---------------------------------|
|---------------------------------|
|---------------------------------|
|-0-2-3-0-(0)-0-0-0-2-3-0-(0)-0-0-|
|---------------------------------|


  S S S S +S  S S S +S  S S S +S  S E     S E. E S E S E Q
|-------------------------------------||-----------------------||
|-------------------------------------||o---------------------o||
|-------------------------------------||-----------------------||
|-------5-(5)-----4-(4)-----3-(3)---2-||-----------------------||
|-0-2-3-------0-3-------0-3-------0---||o-2-2----2-2-2-2------o||
|-------------------------------------||-----------------------||


  S S S S +S  S S S +S  S S S +S  S E
|-------------------------------------|
|-------------------------------------|
|-------------------------------------|
|-------5-(5)-----4-(4)-----3-(3)---2-|
|-0-2-3-------0-3-------0-3-------0---|
|-------------------------------------|


  S E. E S E S E Q    E E S S S S +S  S E E S S
|-------------------|------------------------------|
|-------------------|------------------------------|
|-------------------|-----9-9-7-9-(9)-9-7-9--------|
|-------------------|-----------------------9-9----|
|-2-2----2-2-2-2----|-7-7--------------------------|
|-------------------|------------------------------|


                   ~~
  E E E S  S +S  S Q.     E E S S S S +S  S E E S S
|-----------------------|---------------------------|
|-----------------------|---------------------------|
|-------7-/9-(9)---7----|-----9-9-7-9-(9)-9-7-9-----|
|-----------------------|-----------------------9-9-|
|-7-7-7-----------------|-7-7-----------------------|
|-----------------------|---------------------------|


  E E E S S S S S S S S S S
|-----------------------------|
|-------9---8---8---7---6-----|
|---------9---8---8---7---6---|
|-----------------------------|
|-7-7-7-----------------------|
|-----------------------------|


  S S S S +S  S S S +S  S S S +S  S E   S E. E S E S E Q
|-------------------------------------|-------------------|
|-------------------------------------|-------------------|
|-------------------------------------|-------------------|
|-------5-(5)-----4-(4)-----3-(3)---2-|-------------------|
|-0-2-3-------0h3-------0h3-------3---|-2-2----2-2-2-2----|
|-------------------------------------|-------------------|


    S S S S +S  E S S S S S +S  E S
||--------------------------------------||
||o------------------------------------o||
||--------------------------------------||
||--------------------------------------||
||o-0-2-3-0-(0)-0-0-0-2-3-0-(0)-0-0----o||
||--------------------------------------||


  S S S S +S  S S S +S  S S S +S  S E
|-------------------------------------|
|-------------------------------------|
|-------------------------------------|
|-------5-(5)-----4-(4)-----3-(3)---2-|
|-0-2-3-------0h3-------0h3-------3---|
|-------------------------------------|


    S E. E S E S E Q      S S S S +S  E S S S S S +S  E S
||---------------------||------------------------------------|
||o-------------------o||------------------------------------|
||---------------------||------------------------------------|
||---------------------||------------------------------------|
||o-2-2----2-2-2-2----o||-0-2-3-0-(0)-0-0-0-2-3-0-(0)-0-0----|
||---------------------||------------------------------------|


  S S S S +S  S S S +S  S S S +S  S E     S E. E S E S E Q   3x
|-------------------------------------||---------------------||
|-------------------------------------||o-------------------o||
|-------------------------------------||---------------------||
|-------5-(5)-----4-(4)-----3-(3)---2-||---------------------||
|-0-2-3-------0h3-------0h3-------3---||o-2-2----2-2-2-2----o||
|-------------------------------------||---------------------||


      S S S S +S  E S S S S S +S  E S     3x
|-||--------------------------------------||
|-||o------------------------------------o||
|-||--------------------------------------||
|-||--------------------------------------||
|-||o-0-2-3-0-(0)-0-0-0-2-3-0-(0)-0-0----o||
|-||--------------------------------------||


  S S S S +S  S S S +S  S S S +S  S E
|-------------------------------------|
|-------------------------------------|
|-------------------------------------|
|-------5-(5)-----4-(4)-----3-(3)---2-|
|-0-2-3-------0h3-------0h3-------0---|
|-------------------------------------|


    S E. E S E S E Q   4x E. S S S E +S  S S S S S  S S
||---------------------||---------------------------------|
||o-------------------o||---------------------------------|
||---------------------||----------9-(9)-------7-9----7---|
||---------------------||--------------------------10-----|
||o-2-2----2-2-2-2----o||-7--7-7-7-------7-7-7------------|
||---------------------||---------------------------------|


  E. S S S E +S  S S S  S S S  S
|--------------------------------|
|--------------------------------|
|----------7-(7)----------7------|
|----------------------10---9-10-|
|-7--7-7-7-------7-7-7-----------|
|--------------------------------|


                                       2/4
  S S S S S S S  S S  S S S  S S S  S   q  Q
|-------------------------------------|--------|
|-------------------------------------|--------|
|-------------7-10-9-10-7-9----7------|--------|
|-7-6-----6-9---------------10---9-10-|-7------|
|-----8-7-----------------------------|--------|
|-------------------------------------|--------|


 4/4
  S S S S S S S S S S S S S S S S    S S S S S S S S S S S S S S S S
|---------------------------------|-------------------------------------|
|---------------------------------|-------------------------------------|
|---------------------------------|-/9-9-9-9-9-9-9-9-9-9-9-9-9-9-9-9----|
|-2-2-2-2-2-2-2-2-2-2-2-2-2-2-2-2-|-------------------------------------|
|---------------------------------|-------------------------------------|
|---------------------------------|-------------------------------------|


  S S S S S S S S S S S S S S S S    S S S S S S S S S S S S S S S S
|---------------------------------|------------------------------------|
|---------------------------------|------------------------------------|
|---------------------------------|-/7-7-7-7-7-7-7-7-7-7-7-7-7-7-7-7---|
|-0-0-0-0-0-0-0-0-0-0-0-0-0-0-0-0-|------------------------------------|
|---------------------------------|------------------------------------|
|---------------------------------|------------------------------------|


  S S S S S S S S S S S S S S S S   S S S S S S S S S S S S S S S S
|---------------------------------|-----------------------------------|
|---------------------------------|-----------------------------------|
|---------------------------------|-------7-----------5-----5---------|
|---------------------------------|-7-5-7---7-5-7-5-7---7-5---7-5-----|
|-0-0-0-0-0-0-0-0-0-0-0-0-0-0-0-0-|-------------------------------7---|
|---------------------------------|-----------------------------------|


  S S S S S S S S S S S S S S S S   S S S S S S S S S S S S S S S S
|---------------------------------|-----------------------------------|
|---------------------------------|-----------------------------------|
|---------------------------------|-------7-----------5-----7-5-------|
|---------------------------------|-7-5-7---7-5-7-5-7---7-5-----7-5---|
|-0-0-0-0-0-0-0-0-0-0-0-0-0-0-0-0-|-----------------------------------|
|---------------------------------|-----------------------------------|


  S S S S S S S S S S S S S S S S    S S S S S S S S S S S S S S S S
|---------------------------------|------------------------------------|
|---------------------------------|------------------------------------|
|---------------------------------|-/9-9-9-9-9-9-9-9-9-9-9-9-9-9-9-9---|
|-2-2-2-2-2-2-2-2-2-2-2-2-2-2-2-2-|------------------------------------|
|---------------------------------|------------------------------------|
|---------------------------------|------------------------------------|


  S S S S S S S S S S S S S S S S   S S S S S S S S S S S S S S S S
|---------------------------------|-----------------------------------|
|---------------------------------|-----------------------------------|
|---------------------------------|-7-7-7-5-5-5-7-7-7-5-5-5-7-7-5-5---|
|-0-0-0-0-0-0-0-0-0-0-0-0-0-0-0-0-|-----------------------------------|
|---------------------------------|-----------------------------------|
|---------------------------------|-----------------------------------|


  S S S S S S S S S S S S S S S S   S S S S S S S S S S S S S S S S
|---------------------------------|-----------------------------------|
|---------------------------------|-----------------------------------|
|-------------7-----5-------5-----|-------------5-----5---------------|
|-------7-5-7---7-5---7-5-7---7-5-|-------7-5-7---7-5---7-5-7-5-------|
|-0-0-0---------------------------|-0-0-0-----------------------7-5---|
|---------------------------------|-----------------------------------|


  S S S S S S S S S S S S S S S S   S S S S S S S S S S S S S S E
|---------------------------------|---------------------------7----|
|---------------------------------|-----------------------7-9---9--|
|-------------7-----7-5---7-7-5---|-------------7-5---7-9----------|
|-------7-5-7---7-5-----5-------7-|-------7-5-7-----7--------------|
|-0-0-0---------------------------|-0-0-0--------------------------|
|---------------------------------|--------------------------------|


  S  S  S S  S  S S  S  S S  E  S  S S  S
|-------------------------9---------------|
|---------9-------9-11-12---11-12-11-9----|
|-9-10-12---10-12----------------------12-|
|-----------------------------------------|
|-----------------------------------------|
|-----------------------------------------|


   S S  S  S S  S  S S  S  S  S  S  S  S S  S
|----------------------------------------------|
|------------9---------------------------------|
|-10-9-10-12---12-10-9----------10-12-10-9-----|
|----------------------12-10-12------------12--|
|----------------------------------------------|
|----------------------------------------------|


   S  S  S S  S S  S  S S  S  S S  S S  S  S
|--------------------------------------------|
|--------------------------------------------|
|----------9-10-9---------------9-10-9-------|
|-12-10-12--------12-10-9-10-12--------12-10-|
|--------------------------------------------|
|--------------------------------------------|


   S S  S  S S  S  S S  S  S S  S  S S  E
|------------------------------------------|
|------------------------------------------|
|--------------------9-10------------9-----|
|----9-10----9-10-12------12-9-10-12---12--|
|-12------12-------------------------------|
|------------------------------------------|


  S S S  S  S  S  S  S  S  S  S  S  S  S  S  S
|----------------------------------------------|
|----------------------------------12-12-------|
|-------14-14-14-12-12-12-14-14-14-------14-14-|
|----------------------------------------------|
|-0-0-0----------------------------------------|
|----------------------------------------------|


  S S S  S  S  S  S  S  S  S  S  S  S  S  S  S
|------------------------------------------------|
|----------------------------------12-12---------|
|-------14-14-14-12-12-12-14-14-14-------14-14---|
|------------------------------------------------|
|-0-0-0------------------------------------------|
|------------------------------------------------|


  S S S  S  S  S  S  S  S  S  S  S  S  S  S  S   E E Q  Q  Q
|----------------------------------------------|--------------|
|----------------------------------12-12-------|--------------|
|-------14-14-14-12-12-12-14-14-14-------14-14-|--------------|
|----------------------------------------------|--------------|
|-0-0-0----------------------------------------|-0-2-3--0-----|
|----------------------------------------------|--------------|


Duration Legend
---------------
W - whole; H - half; Q - quarter; E - 8th; S - 16th; T - 32nd; X - 64th; a - acciaccatura
+ - note tied to previous; . - note dotted; .. - note double dotted
Uncapitalized letters represent notes that are staccato (1/2 duration)
Irregular groupings are notated above the duration line
Duration letters will always appear directly above the note/fret number it represents the
duration for.  Duration letters with no fret number below them represent rests.  Multi-
bar rests are notated in the form Wxn, where n is the number of bars to rest for.  Low
melody durations appear below the staff

Tablature Legend
----------------
 h   - hammer-on
 p   - pull-off
 b   - bend
 pb  - pre-bend
 r   - bend release (if no number after the r, then release immediately)
 /\  - slide into or out of (from/to "nowhere")
 s   - legato slide
 S   - shift slide
  - natural harmonic
[n]  - artificial harmonic
n(n) - tapped harmonic
 ~   - vibrato
 tr  - trill
 T   - tap
 TP  - trem. picking
 PM  - palm muting
\n/  - tremolo bar dip; n = amount to dip
 \n  - tremolo bar down
 n/  - tremolo bar up
/n\  - tremolo bar inverted dip
 =   - hold bend; also acts as connecting device for hammers/pulls
 <>  - volume swell (louder/softer)
 x   - on rhythm slash represents muted slash
 o   - on rhythm slash represents single note slash

Misc Legend
-----------
 |  - bar
||  - double bar
||o - repeat start
o|| - repeat end
*|  - double bar (ending)
 :  - bar (freetime)
 $  - Segno
 &  - Coda
Tempo markers -  = BPM(8/16=s8/s16), where s8 = swing 8ths, s16 = swing 16ths


*****************************************************************************************
* Generated using Power Tab Editor by B.S. Larsen - http://www.crosswinds.net/~powertab *
*****************************************************************************************
Comments