Dream Theater - Dont Look Past Me Chords & Tabs

 

Dont Look Past Me Chords & Tabs

Dream Theater Chords & Tabs

Version: 1 Type: Tab 0 ratings
1 star 2 stars 3 stars 4 stars 5 stars
comments

Dont Look Past Me Tab

 Standard Tuning

Gt.1
-------------------------------------------------------3-----------------|
-------------------------------------3-----------------3--------6--------|
-2------------------------------5----2--------5--------0--------5--------|
-2--------6--------5-------8----5----0--------5-----------------3--------|
-0--------7--------5-------8----3-------------3--------------------------|
----------4--------3-------6---------------------------------------------|

Gt.2
-------------------------------------------------------------------------|
---------------------------------------------------------------------5---|
-------------------------------------------------------------------------|
-------------------------------------------------------------------------|
-------------------------------------------------------------------------|
-------------------------------------------------------------------------|


Gt.1
----------------------------------------------------------------------------|
-5-------------------5---------------------3---------------------3----------|
-6-------------------4---------------------4---------------------3----------|
-7-------------------6---------------------5---------------------3----------|
----------------------------------------------------------------------------|
----------------------------------------------------------------------------|
[ Tab from: http://www.guitartabs.cc/tabs/d/dream_theater/dont_look_past_me_tab.html ]
Gt.2
-----5--------------------7--------------------------------------------------|
-5--------5------------5-----5---------------------------------------3-5-6-5-|
--------------7---6-7--------------------------------------------------------|
----------------------------------7-9-11-12--14--12-11-9h10p9--7--5----------|
-----------------------------------------------------------------------------|
-----------------------------------------------------------------------------|

Gt.1
----------------------------------------------------------------------------|
-5--------7-----------------5------------------------3----------------------|
-5--------7-----------------5------------------------4----------------------|
-5--------7-----------------5------------------------5----------------------|
----------------------------------------------------------------------------|
----------------------------------------------------------------------------|

Gt.2
------------------10----------8--7--5--3--14-15-17-17----15--17-------------|
------7-8---10---------------------------------------------------15------15-|
----------------------------------------------------------------------------|
----------------------------------------------------------------------------|
----------------------------------------------------------------------------|
----------------------------------------------------------------------------|


Gt.1
------------------------------------------------------------------------|
-1----------------------------------------------------------------------|
-2----------------------------------------------------------------------|
-3----------------------------------------------------------------------|
------------------------------------------------------------------------|
------------------------------------------------------------------------|

Gt.2
---------------15-13-20h22-20-------------------------------------------|
---13-12----------------------------------------------------------------|
---------12-10----------------------------------------------------------|
------------------------------------------------------------------------|
------------------------------------------------------------------------|
------------------------------------------------------------------------|
Comments