Dream Theater - Burning My Soul Chords & Tabs

 

Burning My Soul Chords & Tabs

Dream Theater Chords & Tabs

Version: 1 Type: Tab 1 rating
1 star 2 stars 3 stars 4 stars 5 stars
comments

Burning My Soul Tab

This is Burning my soul from Dream Theater. its an awesome song.



Intro



              
           

  Gtr I                                 Gtr I
|---------||----------|----------||-||------6-(6)----3--|
|---------||o---------|---------o||-||o-5---------------|
|---------||----------|----------||-||------3-(3)-4--0--|
|---------||----------|----------||-||--2---------------|
|---------||o---------|---------o||-||o-----------2-----|
|---------||----------|----------||-||------------------|


                    4x                                               6x
|-(3)---5-(5)-------||-||--------6-(6)------3-|-(3)-----5-(5)--------||
|-------------5--6-o||-||o-5------------------|---------------5---6-o||
|-(0)---2-(2)-------||-||--------3-(3)-4----0-|-(0)-----2-(2)--------||
|-------------2--3--||-||--2------------------|---------------2---3--||
|------------------o||-||o-------------2------|---------------------o||
|-------------------||-||---------------------|----------------------||
|
|                          Gtr II
|                   4x                                               6x
|-------------------||-||---------------------|----------------------||
|------------------o||-||o--------------------|---------------------o||
|-------------------||-||---------------------|----------------------||
|-------------------||-||--2----/8--8------/5-|--5-----/7--7------3--||
|------------------o||-||o-2----/8--8------/5-|--5-----/7--7------3-o||
|-------------------||-||--0--0----------0----|------0----------0----||


   Verse 1
    
    Gtr II
    PM--------------------|
                             4x
||---------------------------||
||o-------------------------o||
||---------------------------||
||--2-2-2-2-2-2-2-2-2-2-2-2--||
||o-2-2-2-2-2-2-2-2-2-2-2-2-o||
||--0-0-0-0-0-0-0-0-0-0-0-0--||


                PM----------------------------------|
|---------------------------|--------------------------|
|---------------------------|--------------------------|
|---------------------------|--------------------------|
|-2-2-2-2-2-2-2-2-2-2-2-2-2-|-2-2-2-2-2-2-2-2-2-2-2-2--|
|-2-2-2-2-2-2-2-2-2-2-2-2-2-|-2-2-2-2-2-2-2-2-2-2-2-2--|
|-0-0-0-0-0-0-0-0-0-0-0-0-0-|-0-0-0-0-0-0-0-0-0-0-0-0--|


  PM--------------------|
|-------------------------|------------------------------||
|-------------------------|------------------------------||
|-------------------------|-3-3-3-3-3-3-3----------------||
|-2-2-2-2-2-2-2-2-2-2-2-2-|-3-3-3-3-3-3-3-4-4-4-4-4-4-4\-||
|-2-2-2-2-2-2-2-2-2-2-2-2-|-1-1-1-1-1-1-1-4-4-4-4-4-4-4\-||
|-0-0-0-0-0-0-0-0-0-0-0-0-|-1-1-1-1-1-1-1-2-2-2-2-2-2-2\-||


   Verse 2&3
  
    PM--|       PM--|
                             4x
||---------------------------||
||o-------------------------o||
||---------------------------||
||--2-2-2-------2-2-2--------||
||o-2-2-2-------2-2-2-------o||
||--0-0-0-0-0-0-0-0-0-0-0-0--||


                         
|---------------------------|--------------------------|
|---------------------------|--------------------------|
|---------------------------|-7-7-7-7-7-7-7-7-7-7-7-7--|
|---------------2-2-2-------|-7-7-7-7-7-7-7-7-7-7-7-7--|
|---------------2-2-2-------|-5-5-5-5-5-5-5-5-5-5-5-5--|
|-0-0-0-0-0-0-0-0-0-0-0-0-0-|-5-5-5-5-5-5-5-5-5-5-5-5--|


|-------------------------|-------------------------------|
|-------------------------|-------------------------------|
|-5-5-5-5-5-5-5-5-5-5-5-5-|-3-3-3-3-3-3-------------------|
|-5-5-5-5-5-5-5-5-5-5-5-5-|-3-3-3-3-3-3-4-4-4-------------|
|-3-3-3-3-3-3-3-3-3-3-3-3-|-1-1-1-1-1-1-4-4-4-------------|
|-3-3-3-3-3-3-3-3-3-3-3-3-|-1-1-1-1-1-1-2-2-2-------------|
|
| Gtr VI
|-------------------------|-------------------------17----|
|-------------------------|----------------------15----15-|
|-------------------------|-------------------14----------|
|-------------------------|-------------------------------|
|-------------------------|-------------------------------|
|-------------------------|-------------------------------|


   Chorus
   
    Gtr III
||---0-0--0-0--0--0-0--0--0-0--0--0-0--0--0-0-|
||o--5-5--5-5--5--5-5--5--5-5--5--5-5--5--5-5-|
||--------------------------------------------|
||--------------------------------------------|
||o-------------------------------------------|
||--------------------------------------------|
|
|   Gtr IV
||-------12-0-10-12-0-10-12-0-10-12-0-10-12-0-|
||o-------------------------------------------|
||--------------------------------------------|
||--------------------------------------------|
||o-------------------------------------------|
||--------------------------------------------|
|
|   Gtr VI
||--------------------------------------------|
||o-------------------------------------------|
||--------------------------------------------|
||--14----------------------------------------|
||o-------------------------------------------|
||--------------------------------------------|



|--0--0-0--0--0-0--0--0-0--0--0-0--0--0-0--0--|
|--8--8-8--8--8-8--8--8-8--8--8-8--8--8-8--8--|
|---------------------------------------------|
|---------------------------------------------|
|---------------------------------------------|
|---------------------------------------------|
|
|-10-12-0-10-12-0-10-12-0-10-12-0-10-12-0-10--|
|---------------------------------------------|
|---------------------------------------------|
|---------------------------------------------|
|---------------------------------------------|
|---------------------------------------------|
|
|---------------------------------------------|
|---------------------------------------------|
|---------------------------------------------|
|---------------------------------------------|
|---------------------------------------------|
|---------------------------------------------|


|--0--0--0--0--0--0--0--0--0--0--0--0--0--0--0--0-|
|-10-10-10-10-10-10-10-10-10-10-10-10-10-10-10-10-|
|-------------------------------------------------|
|-------------------------------------------------|
|-------------------------------------------------|
|-------------------------------------------------|
|
|-12--0-10-12--0-10-12--0-10-12--0-10-12--0-10-12-|
|-------------------------------------------------|
|-------------------------------------------------|
|-------------------------------------------------|
|-------------------------------------------------|
|-------------------------------------------------|


                          PM------------|
|--0--0--0--0--0--0--0--0------------------||
|-13-13-13-13-13-13-13-13-----------------o||
|---------------------------7--------------||
|-------------------------9---7-9-5-7------||
|-------------------------------------5-7-o||
|------------------------------------------||
|
|--0-10-12--0-10-12--0-10------------------||
|-----------------------------------------o||
|------------------------------------------||
|------------------------------------------||
|-----------------------------------------o||
|------------------------------------------||


                            
                          
                          PM------------|
|--0--0--0--0--0--0--0--0-----------------|
|-12-12-12-12-12-12-12-12-----------------|
|---------------------------7-------------|
|-------------------------9---7-9-5-7-----|
|-------------------------------------5-7-|
|-----------------------------------------|
|
|--0-10-12--0-10-12--0-10-----------------|
|-----------------------------------------|
|-----------------------------------------|
|-----------------------------------------|
|-----------------------------------------|
|-----------------------------------------|

    Gtr II
||------------------|------------------||
||o-----------------|-----------------o||
||------------------|------------------||
||--2----/8-8----/5-|-5----/7-7----3---||
||o-2----/8-8----/5-|-5----/7-7----3--o||
||--0--0-------0----|----0-------0-----||
|
||------------------|------------------||
||o-----------------|-----------------o||
||------------------|------------------||
||------------------|------------------||
||o-----------------|-----------------o||
||------------------|------------------||


                                            
 
    PM----|     PM----|           PM----|     PM----|
||------------------------------|------------------------------||
||o-----------------------------|-----------------------------o||
||------------------------------|------------------------------||
||------------------------------|------------------------------||
||o-----------------------------|-----------------------------o||
||--0-0-0-0-0-0-0-0-0-0-[0]-[0]-|-0-0-0-0-0-0-0-0-0-0-[0]-[0]--||


  
                                      4x
||------------------|-----------------||-----------------------------|
||o-----------------|----------------o||-----------------------------|
||------------------|-----------------||-----------------------------|
||--2----/8-8----/5-|-5----/7-7----3--||-----------------------------|
||o-2----/8-8----/5-|-5----/7-7----3-o||-----------------------------|
||--0--0-------0----|----0-------0----||-0-0-0-0--0--0-0-0-0--0-0-0--|


 Keyboard Solo

|--------------------|---------------------------------|
|--------------------|---------------------------------|
|-7tr9---------------|-(7tr9)-------(7tr9)-7b9====(7)r-|
|--------------------|---------------------------------|
|--------------------|---------------------------------|
|--------------------|---------------------------------|
|
| Gtr II
|--------------------|---------------------------------|
|--------------------|---------------------------------|
|--------------------|---------------------------------|
|-2-------/8-8----/5-|--5--------/7--7-------------3---|
|-2-------/8-8----/5-|--5--------/7--7-------------3---|
|-0-----0-------0----|---------0----------------0------|


|---------------------------------------|
|--------12--------12----8b10----10-|
|------9-(9)-------9-9-----7------------|
|---------------------------------------|
|---------------------------------------|
|---------------------------------------|
|
|---------------------------------------|
|---------------------------------------|
|---------------------------------------|
|---2-----------/8---8------------/5----|
|---2-----------/8---8------------/5----|
|---0-----0------------------0----------|


               
|------12-----12------12---12--------------|
|-(10)-----10----9-------8-----8-8-8-------|
|------------------------------------9-7---|
|----------------------------------------9-|
|------------------------------------------|
|------------------------------------------|
|
|------------------------------------------|
|------------------------------------------|
|------------------------------------------|
|---5--------------/7----7-----------3-----|
|---5--------------/7----7-----------3-----|
|--------------0-----------------0---------|


                                              ~~~~~~~~
|----12--(12)----(12)-------12-11-------11-|-10--(10)----10----------------------|
|-12---------------------12-------12-------|----------12----10-10tr14----10------|
|---------------------11-------------------|--------------------------------9-11-|
|------------------------------------------|-------------------------------------|
|------------------------------------------|-------------------------------------|
|------------------------------------------|-------------------------------------|
|
|------------------------------------------|-------------------------------------|
|------------------------------------------|-------------------------------------|
|------------------------------------------|-------------------------------------|
|--2----------/8---8-----------------/5----|--5----------/7-----7---------3------|
|--2----------/8---8-----------------/5----|--5----------/7-----7---------3------|
|--0-------0--------------------0----------|-------0-------------------0---------|


[ Tab from: http://www.guitartabs.cc/tabs/d/dream_theater/burning_my_soul_tab.html ]
|-10-9----------9-10----------9-10----------9-10----------9-10-9-------9-12-|
|------12-10-12------12-10-12------12-10-12------12-10-12--------10-12------|
|---------------------------------------------------------------------------|
|---------------------------------------------------------------------------|
|---------------------------------------------------------------------------|
|---------------------------------------------------------------------------|
|
|---------------------------------------------------------------------------|
|---------------------------------------------------------------------------|
|---------------------------------------------------------------------------|
|--2----------------------------/8--------2-------------------------/5------|
|--2----------------------------/8--------2-------------------------/5------|
|--0------------------0-------------------0------------------0--------------|


        
|--------12-------10---------------------12-------10-(10)\---|
|-10--12----12-10----10------10---12--14----12-10------------|
|-----------------------9-12----9----------------------------|
|------------------------------------------------------------|
|------------------------------------------------------------|
|------------------------------------------------------------|
|
|                             ~~~~~~~~
|------------------------------------------------------------|
|------------------------------------------------------------|
|------------------------------------------------------------|
|-(5)--------2----------------7---(7)------------------2---3-|
|-(5)--------2----------------7---(7)------------------2---3-|
|---------------------0--------------------------------0---1-|



|--------------------------|--------------------------------------|
|-12tr15-------------------|-12tr15-------------------14-15-------|
|--------------------------|--------------------------------16-14-|
|--------------------------|--------------------------------------|
|--------------------------|--------------------------------------|
|--------------------------|--------------------------------------|
|
|--------------------------|--------------------------------------|
|--------------------------|--------------------------------------|
|--------------------------|--------------------------------------|
|--------------------------|--------------------------------------|
|--------------------------|--------------------------------------|
|--0-----0-0-0--0--0-0-0-0-|--3-----3-3-3--3--3-3-3-3--3----------|



|------------------------------------------------------------------------|
|----14-15----------14-15----------14-15-14-12-------15------------------|
|-16-------16-14-16-------16-14-16-------------14-12----12---14----------|
|---------------------------------------------------------------14-12----|
|---------------------------------------------------------------------14-|
|------------------------------------------------------------------------|
|
|------------------------------------------------------------------------|
|------------------------------------------------------------------------|
|------------------------------------------------------------------------|
|------------------------------------------------------------------------|
|--0-----0-----0-----0-----------0--------------0-----0----0-----0-------|
|------------------------------------------------------------------------|



|----------------------------------------------------------------------------------17-------------|
|----------------------------------------------------------------------------15-17----15----15-17-|
|-------14-------------------------------14-------------12-14-15-14-12-14-16-------------16-------|
|-12-14----14-12-------------------12-14----12----12-14-------------------------------------------|
|----------------14-12-10-12-13-14-------------14-------------------------------------------------|
|-------------------------------------------------------------------------------------------------|
|
|-------------------------------------------------------------------------------------------------|
|-------------------------------------------------------------------------------------------------|
|-------------------------------------------------------------------------------------------------|
|-------------------------------------------------------------------------------------------------|
|--3-----3-----3-----3-----------3-----------3-----3p=======2-----2--------0----------------------|
|--------------------------------------------------------------------------------------3p====0----|



   ~~~~~~~~~~~~~~~~~~~~~~~~~~~~~~~~~~~~~~~~~~~~~
|-12-------14-------------|-17-------19-------------19-|
|------------------15-----|------------------20--------|
|-------------------------|----------------------------|
|-------------------------|----------------------------|
|-------------------------|----------------------------|
|-------------------------|----------------------------|
|
|-------------------------|----------------------------|
|-------------------------|----------------------------|
|-------------------------|----------------------------|
|-------------------------|----------------------------|
|-------------------------|----------------------------|
|--0-0-0-0----0--0--0-0-0-|--3-3-3-3----3--3--3-3-3--3-|



|-22b24----------19-22-19-------------------------|
|-------------------------22----------22-20-------|
|----------------------------19-------------------|
|-------------------------------19-21-------19-21-|
|-------------------------------------------------|
|-------------------------------------------------|
|
|-------------------------------------------------|
|-------------------------------------------------|
|-------------------------------------------------|
|-------------------------------------------------|
|--0----0-0-0--0--------0-----0--0-----0----------|
|-------------------------------------------------|



|-------------------------------------------------------------------------------------|
|-------15---------------------------------------------------------------------15b17==|
|-------------------14----14----14-14-12-14----14----14-14-12-14----12-14-------------|
|-14-17----17-14-17----14----12-------------12----12-------------12---------12--------|
|-------------------------------------------------------------------------------------|
|-------------------------------------------------------------------------------------|
|
|-------------------------------------------------------------------------------------|
|-------------------------------------------------------------------------------------|
|-------------------------------------------------------------------------------------|
|-----------------------------------------------2-----0-------------------------------|
|--3-----3-----3-----3-----------3--------3--------------2-----1-----0h=1p0-----------|
|----------------------------------------------------------------------------3--0-----|


  

|------------------------|-------------------------------|
|-(15)-------------------|-(15)-------------------(15)---|
|------------------------|-------------------------------|
|------------------------|-------------------------------|
|------------------------|-------------------------------|
|------------------------|-------------------------------|
|
|   PM-------------------------------------------------|
|------------------------|-------------------------------|
|------------------------|-------------------------------|
|------------------------|-------------------------------|
|------------------------|-------------------------------|
|------------------------|-------------------------------|
|---0--0-0-0--0--0-0-0-0-|---0--0-0-0--0--0-0-0-0---0--0-|



|------------------------|--------------------------------||
|-(15)-------------------|-(15)r\-------------------------||
|------------------------|--------------------------------||
|------------------------|--------------------------------||
|------------------------|--------------------------------||
|------------------------|--------------------------------||
|
|------------------------|--------------------------------||
|------------------------|--------------------------------||
|------------------------|--------------------------------||
|------------------------|--------------------------------||
|------------------------|--------------------------------||
|---0--0-0-0--0--0-0-0-0-|---0----0-0-0--0--0-0-0-0-0-0-0-||


   Verse 4
                          1.,2.,3.
                  
    Gtr II
    PM--------------------------------------------|
                                                     4x
||----------------------|----------------------------||
||o---------------------|---------------------------o||
||----------------------|----------------------------||
||--2-2-2-2--2--2-2-2-2-|-2-2-2-2--2--2-2-2-2-2-2-2--||
||o-2-2-2-2--2--2-2-2-2-|-2-2-2-2--2--2-2-2-2-2-2-2-o||
||--0-0-0-0--0--0-0-0-0-|-0-0-0-0--0--0-0-0-0-0-0-0--||


  4.
|-----------------------------||
|-----------------------------||
|-3-3-3-3--3--3---------------||
|-3-3-3-3--3--3-4-4-4-4-4-4---||
|-1-1-1-1--1--1-4-4-4-4-4-4---||
|-1-1-1-1--1--1-2-2-2-2-2-2---||


 Verse 5
  

  Gtr II
  PM--------------|     PM--------------|   PM|
|---------------------|-----------------------------|
|---------------------|-----------------------------|
|---------------------|-----------------------------|
|-2-2-2-2--2--2-2-2-2-|-2-2-2-2--2--2-----0-----0h2-|
|-2-2-2-2--2--2-2-2---|-2-2-2-2--2--2---------------|
|-0-0-0-0--0--0-0-0---|-0-0-0-0--0--0-0-0---0-0-----|
|
| Gtr VI
|---------------------|-----------------------------|
|---------------------|-----------------------------|
|-4-------------------|-7---------------------------|
|---------------------|-----------------------------|
|---------------------|-----------------------------|
|---------------------|-----------------------------|


  PM--------------|     PM--------------|   PM|
|---------------------|-----------------------------|
|---------------------|-----------------------------|
|---------------------|-----------------------------|
|-2-2-2-2--2--2-2-2---|-2-2-2-2--2--2-----2-----0h2-|
|-2-2-2-2--2--2-2-2-4-|-2-2-2-2--2--2---------------|
|-0-0-0-0--0--0-0-0---|-0-0-0-0--0--0-0-0---0-0-----|
|
|---------------------|-----------------------------|
|---------------------|-----------------------------|
|-6-------------------|-3-------------4-----1-------|
|---------------------|-----------------------------|
|---------------------|-----------------------------|
|---------------------|-----------------------------|


              
  PM--------------|                   PM|   PM|
|---------------------|-----------------------------|
|---------------------|-----------------------------|
|---------------------|-----------------------------|
|-2-2-2-2--2--2-2-2-2-|-0-0-0-0--0--0-----0-----0h2-|
|-2-2-2-2--2--2-2-2---|-----------------------------|
|-0-0-0-0--0--0-0-0---|---------------0-0---0-0-----|
|
|---------------------|-----------------------------|
|---------------------|-----------------------------|
|-4-------------------|-7---------------------------|
|---------------------|-----------------------------|
|---------------------|-----------------------------|
|---------------------|-----------------------------|


|-----------------------|------------------------------------||
|-----------------------|------------------------------------||
|-----------------------|----------3-------------------------||
|-----------------------|----------3--4----------------------||
|-3-3-3-3--3--3-3-3-3-0-|-1-1-1-1--1--4-----------4--3--2--1-||
|-----------------------|-------------2----------------------||
|
|-----------------------|------------------------------------||
|-----------------------|------------------17----------------||
|-5---------------------|-3-------------15----15-------------||
|-----------------------|------------14----------16-15-14-13-||
|-----------------------|------------------------------------||
|-----------------------|------------------------------------||


    Gtr II
                                      6x
||------------------|-----------------||----------|---------------|
||o-----------------|----------------o||----------|---------------|
||------------------|-----------------||----------|---------------|
||--2----/8-8----/5-|-5----/7-7----3--||-2--------|-(2)----(2)----|
||o-2----/8-8----/5-|-5----/7-7----3-o||-2--------|-(2)----(2)----|
||--0--0-------0----|----0-------0----||-0--------|-(0)----(0)----|



                
Comments