Dream Theater - Beyond This Life Chords & Tabs

 

Beyond This Life Chords & Tabs

Dream Theater Chords & Tabs

Version: 5 Type: Tab

Beyond This Life Tab

   
e|------------------------------------------------------|
B|------------------------------------------------------|
G|-2b4-~~~~~~~~~~~~~-(2)-------------7----7--------9b11-|
D|-----------------------------------7----7----9p7------|
A|--------------------------7h8h9-----------------------|
E|------------------------------------------------------|

e|---------------------------------------------------|
B| --------------------------------------------------|
G|-h.b.9-9---9---9--9--9-9-(9)--7--9--7------9b11----|
D|---------------------------------9-----9~~---------|
A|---------------------------------------------------|
E|---------------------------------------------------|


e|-7-----------7----------7--7--------------10b12-|
B| ----7-10b12-----10p7-7-------------------------|
G|------------------------------10p9p7---9--------|
D|-------------------------------------9---9------|
A|------------------------------------------------|
E|------------------------------------------------|

e|-10--7----------------------------------------------------|
B|-------/12--10--------------------------------------------|
G|---------------11\9--7----9----7--------------------------|
D|-----------------------9----9----9--7---------------------|
A|--------------------------------------9-8-7-5---5---------|
E|----------------------------------------------7---5b(A.H)-|

e|----------------------------------7-8-9-10-9b10-|
B|--------------------------7-8-9-10--------------|
G|---------7b9~~~~~~-6-7-8-9----------------------|
D|------------------------------------------------|
A|------------------------------------------------|
E|-0(tb)------------------------------------------|

e|-(9)p7----7--12---0-17-0-16---14---|
B|-------10------12----------17---15-|
G|-----------------------------------|
D|-----------------------------------|
A|-----------------------------------|
E|-----------------------------------|

e|------------------------------------------------|
B|-9b10-(9)-7-------------------------------------|
G|------------9-7-6b7-(6)-4-----------------------|
D|--------------------------7-6b7-(6)-4----4------|
A|--------------------------------------7------/7-|
E|------------------------------------------------|

e|------------------------------------------------|
B|------------------------------------------------|
G|------------------------------------------------|
D|------------------------14-15-16-17-14-15-16-17-|
A|-------------14-15-16-17------------------------|
E|-14-15-16-17------------------------------------|

e|-----------------------------------14-15-16-17-17b19-|
B|------------------------14-15-16-17------------------|
G|-14-15-16-17-14-15-16-17-----------------------------|
D|-----------------------------------------------------|
A|-----------------------------------------------------|
E|-----------------------------------------------------|

e|-14-19------14-19-----------------------------------|
B|-------17b19------17b19-(17)-15-17-15---------------|
G|--------------------------------------16-----14-----|
D|------------------------------------------16-----14-|
A|----------------------------------------------------|
E|----------------------------------------------------|
[ Tab from: http://www.guitartabs.cc/tabs/d/dream_theater/beyond_this_life_tab_ver_5.html ]
e|-----------------------10-11-10-7----10-11-10-7-|
B|---------------------------------10-7-----------|
G|-------------14b16~~~~~-------------------------|
D|-12---14---12-----------------------------------|
A|----14---14-------------------------------------|
E|------------------------------------------------|

e|------12-13-14-13-12-----17-19-17-14-----19-22-19-17-|
B|-10-7---------------15-12-----------17-15------------|
G|-----------------------------------------------------|
D|-----------------------------------------------------|
A|-----------------------------------------------------|
E|-----------------------------------------------------|

e|------22-24-22-19-------------------------------------|
B|-19-17------------22-19-22-24-22-19-------------------|
G|------------------------------------21-19-21-23-21-19-|
D|------------------------------------------------------|
A|------------------------------------------------------|
E|------------------------------------------------------|

e|-------------------------------------19-19---------|
B|-----------------------------------21------21------|
G|---------------------------------22----------22----|
D|-21-19-21-24-21-19------------*23--------------23,-|
A|-------------------21-19---------------------------|
E|------------------------22-19----------------------|

e|----------18-18----------------15-15-------------16-16-|
B|-------20-------20-----------17-----17---------18------|
G|- ---21------------21------18---------18-----19--------|
D|**22-----------------22,-19-------------19-20----------|
A|-------------------------------------------------------|
E|-------------------------------------------------------|

e|---------------------------------0---------------------|
B|-18--------------------5-----3\5--3-----3--------------|
G|----19-----\16-----2/4---4----------4-----4~~--4-2-----|
D|-------20-----------------------------4------------4-3-|
A|-------------------------------------------------------|
E|-------------------------------------------------------|

e|---------------------------------------------16-------/21-|
B|------------------------------------14--------------------|
G|------------------------------13-------11-13----16-18-----|
D|-2h3p2------2-----------11--------11----------------------|
A|-------5--2---5--2----------11----------------------------|
E|-------------------9--------------------------------------|

e|--------------------------------------------------------------|
B|--15---15-15--15---15-15-15--17--17-18------18-18----22-------|
G|-17b|---------17b|-----------19b|---20b|-------20b|--21-------|b|(tb)
D|--------------------------------------------------------------|
A|--------------------------------------------------------------|
E|--------------------------------------------------------------|

Ok,that's it.This is the 2nd solo,with wah/wah.

b=bend.
h.b.=hold bend.
(9)=stop bending and return to this note.
/,\=slide.
h=hammer on
tb=tremolo bar
A.H=Artificial Harmonic;Play the note.The pick hand produces the harmonic by using
a finger to lightly touch the same string to the right tab(1 8ava higher).

*=repeat this piece(from * up to ,) 4-5 times. (This has to be played as a chord.
Place the fingers and then play the notes one right after the other,don't play them
simultaneously).
**=repeat this piece(from ** up to ,) 2 times.(As above)
b|=Play these notes at the same time and bend the lower note to the same pitch as
the higher one.

If you have any problem,if you don't understand sth,just e-mail me.