Dream Theater - Answer Lies Within Chords & Tabs

 

Answer Lies Within Chords & Tabs

Dream Theater Chords & Tabs

Version: 1 Type: Tab 0 ratings
1 star 2 stars 3 stars 4 stars 5 stars
comments

Answer Lies Within Tab

   
Band- Dream Theater
Song- The Answer Lies Within

Gtr I (E A D G B E) - 'Piano'
Gtr II (E A D G B E) - 'Bells'
Gtr III (E A D G B E) - 'Rhythm Guitar'
Gtr IV (E A D G B E) - 'Orchestra'

 Bells/Piano/Vocals Intro
  Q=71
 4/4
  Gtr II
   W           W           W           W
|-10--------|-10--------|-10--------|-10----|
|-----------|-----------|-----------|-------|
|-----------|-----------|-----------|-------|
|-----------|-----------|-----------|-------|
|-----------|-----------|-----------|-------|
|-----------|-----------|-----------|-------|


  Gm                        F
  Gtr I
   E  E  E  E  E  E  E  E    E  E  E  E  E  E  E  E
|-------10----------10----|-------10----------10----|
|-11----------11----------|-10----------10----------|
|-------------------------|-------------------------|
|----12----12----12----12-|----12----12----12----12-|
|-------------------------|-------------------------|
|-------------------------|-------------------------|
|
| Gtr II
|  W                         W
|-10----------------------|-10----------------------|
|-------------------------|-------------------------|
|-------------------------|-------------------------|
|-------------------------|-------------------------|
|-------------------------|-------------------------|
|-------------------------|-------------------------|


  Gm                        F
   E  E  E  E  E  E  E  E    E  E  E  E  E  E  Q
|-------10----------10----|-------10----------10---|
|-11----------11----------|-10----------10---------|
|-------------------------|------------------------|
|----12----12----12----12-|----12----12----12------|
|-------------------------|------------------------|
|-------------------------|------------------------|
|
|  W                         W
|-10----------------------|-10---------------------|
|-------------------------|------------------------|
|-------------------------|------------------------|
|-------------------------|------------------------|
|-------------------------|------------------------|
|-------------------------|------------------------|


  Gm                        F
   E  E  E  E  E  E  E  E    E  E  E  E  E  E  E  E
|-------10----------10----|-------10----------10----|
|-11----------11----------|-10----------10----------|
|-------------------------|-------------------------|
|----12----12----12----12-|----12----12----12----12-|
|-10----------------------|--8----------------------|
|-------------------------|-------------------------|
   W                         W


  Eb          Ebm           Bb
   E  E  E  E  E  E  E  E    E  E  E  E  E  E  Q
|-------10----------------|-------------10----13---|
|-------------------13----|-------11-------11------|
|-12----------11-------11-|-10-------10------------|
|----12----12----10-------|----12------------------|
|-------------------------|------------------------|
|-11-----------8----------|-10---------------------|
   H           H             W


  Gm                        F
   E  E  E  E  E  E  E  E    E  E  E  E  E  E  Q
|-------10----------10----|-------10----------10--|
|-11----------11----------|-10----------10--------|
|-------------------------|-----------------------|
|----12----12----12----12-|----12----12----12-----|
|-10----------------------|--8--------------------|
|-------------------------|-----------------------|
   W                         W


  Eb          Ebm           D
   E  E  E  E  E  E  E  E    E  E  E  E  H
|----------11----------11-|-10----------------||
|-------11----------11----|----------10-------||
|-12----------11----------|-------12----11----||
|----13----------13-------|----12-------------||
|-------------------------|-------------------||
|-11-----------8----------|-10----------------||
   H           H             W


 Chorus in Pre-Verse
  Eb      Cm            Bb      Gm
   Q   Q   E  E  E  E    Q   Q   E  E  E  E
|---------------------|---------------------|
|---------------------|---------------------|
|---------------------|------------------12-|
|-13------13----10-13-|-12------12----12----|
|-10--10--10-10-------|-13--13--13----------|
|-11-------8----------|-13------15-15-------|
   H       H             H       H


  Eb        Ebm       Bb
   Q   E  E  Q   Q     E  E  E  E  E  E  E  E
|-------------------|--------------------------|
|-------------------|-------------11-----------|
|-------------------|-------------------10-----|
|-13--------13--10--|-12-------12--------------|
|-13--13-10--9------|-13----13-------------13--|
|-15---------8------|-13-13----------13--------|
   H         H         W


  Eb      Cm        Bb  Dm  Gm
   Q   Q   Q   Q     Q   Q   Q   E  E
|-----------------|-------------------|
|-----------------|-------------------|
|-----------------|-------------------|
|-13------13--10--|--8--10--12--------|
|-10--13--10------|--8--12--10--10-13-|
|-11-------8------|-10-------6--------|
   H       H         H       H


  Eb                    Ebm
   E  E  E  E  Q   Q     E E E  E  Q   Q
|---------------------|---------------11---|
|-------------11------|--------------------|
|-------------12------|-----------10-------|
|-13-------13-----13--|-13---8-10----------|
|-13----13------------|--9-9---------------|
|-11-15---------------|-11-----------------|
   W                     W


  Gm
   E  E  E   E    E  E  E  E    E  E  E   E    E  E  E  E
|-------10-------------10----|-------10-------------10----|
|-11-------------11----------|-11-------------11----------|
|----------------------------|----------------------------|
|----12-----12------12----12-|----12-----12------12----12-|
|----------------------------|--------------------------5-|
|----------------------------|----------------------------|
|
| Gtr III
|  Q     E.    S  Q     Q       Q     E.    S  Q     Q
|--3-----3-----3--3-----3----|--3-----3-----3--3-----3----|
|--3-----3-----3--3-----3----|--3-----3-----3--3-----3----|
|--3-----3-----3--3-----3----|--3-----3-----3--3-----3----|
|----------------------------|----------------------------|
|----------------------------|----------------------------|
|----------------------------|----------------------------|
|
| Gtr IV
|  W                            W
|----------------------------|----------------------------|
|----------------------------|----------------------------|
|----------------------------|----------------------------|
|----------------------------|----------------------------|
|----------------------------|----------------------------|
|----------------------------|----------------------------|


   E  E  E   E    E  E  E  E    E  E  E   E    E  E  E  E
|-------10-------------10----|-------10-------------10------||
|-11-------------11----------|-11-------------11------------||
|----------------------------|------------------------------||
|----12-----12------12----12-|----12-----12------12----12---||
|----------------------------|------------------------------||
|--3-------------------------|------------------------------||
|  W
|
|  Q     E.    S  E  E  Q       Q     E.    S  E  E  Q
|--3-----3-----3--3--3--3----|--3-----3-----3--3--3--3------||
|--3-----3-----3--3--3--3----|--3-----3-----3--3--3--3------||
|--3-----3-----3--3--3--3----|--3-----3-----3--3--3--3------||
|--5-----5-----5--5--5--5----|--5-----5-----5--5--5--5------||
|----------------------------|------------------------------||
|----------------------------|------------------------------||
|
|  W                            H              E  E  E  E
|----------------------------|------------------------------||
|----------------------------|------------------------------||
|----------------------------|------------------------------||
|----------------------------|-----------------0------------||
|----------------------------|--------------------3--1--0---||
|----------------------------|------------------------------||


 Verse #1/Band Enters
  Gm                              F
   E  E  E   E    E  E  E   E      E  E  E   E    E  E  E   E
|-------10-------------10-------|-------10-------------10-------|
|-11-------------11-------------|-10-------------10-------------|
|-------------------------------|-------------------------------|
|----12-----12------12-----12---|----12-----12------12-----12---|
|-10----------------------------|--8----------------------------|
|-------------------------------|-------------------------------|
|  W                               W
|
|  Q     E.    S  E  E  E.    S    Q     E.    S  E  E  E.    S
|--3-----3-----3--3--3--3-----3-|--1-----1-----1--1--1--1-----1-|
|--3-----3-----3--3--3--3-----3-|--1-----1-----1--1--1--1-----1-|
|--3-----3-----3--3--3--3-----3-|--2-----2-----2--2--2--2-----2-|
|--5-----5-----5--5--5--5-----5-|--3-----3-----3--3--3--3-----3-|
|--5-----5-----5--5--5--5-----5-|--3-----3-----3--3--3--3-----3-|
|--3-----3-----3--3--3--3-----3-|--1-----1-----1--1--1--1-----1-|
|
|  W                               W
|-------------------------------|-------------------------------|
|-------------------------------|-------------------------------|
|-------------------------------|-------------------------------|
|-------------------------------|--3----------------------------|
|-------------------------------|-------------------------------|
|--3----------------------------|-------------------------------|


  Eb             Ebm              Bb
   E  E  E   E    E  E  E   E      E  E  E   E    H
|-------10----------------------|----------------18---------|
|----------------------13-------|-------11------------------|
|-12-------------11--------11---|-10--------10--------------|
|----12-----12------10----------|----12---------------------|
|-------------------------------|---------------------------|
|-11--------------8-------------|-10------------------------|
|  H              H                W
|
|  Q     E.    S  E  E  E.    S    Q     E.    S  E E E. S
|--6-----6-----6--6--6--6-----6-|--6-----6-----6--6-6-6--6--|
|--8-----8-----8--7--7--7-----7-|--6-----6-----6--6-6-6--6--|
|--8-----8-----8--8--8--8-----8-|--7-----7-----7--7-7-7--7--|
|--8-----8-----8--8--8--8-----8-|--8-----8-----8--8-8-8--8--|
|--6-----6-----6--6--6--6-----6-|--8-----8-----8--8-8-8--8--|
|-------------------------------|--6-----6-----6--6-6-6--6--|
|
|  H              H                W
|-------------------------------|---------------------------|
|-------------------------------|---------------------------|
|-------------------------------|---------------------------|
|--1----------------------------|--0------------------------|
|-----------------3-------------|---------------------------|
|-------------------------------|---------------------------|


  Gm                              F
   E  E  E   E    E  E  E   E      E  E  E   E    E  E  E   E
|-------10-------------10-------|-------10-------------10-------|
|-11-------------11-------------|-10-------------10-------------|
|-------------------------------|-------------------------------|
|----12-----12------12-----12---|----12-----12------12-----12---|
|-10----------------------------|--8----------------------------|
|-------------------------------|-------------------------------|
|  W                               W
|
|  Q     E.    S  E  E  E.    S    Q     E.    S  E  E  E.    S
|--3-----3-----3--3--3--3-----3-|--1-----1-----1--1--1--1-----1-|
|--3-----3-----3--3--3--3-----3-|--1-----1-----1--1--1--1-----1-|
|--3-----3-----3--3--3--3-----3-|--2-----2-----2--2--2--2-----2-|
|--5-----5-----5--5--5--5-----5-|--3-----3-----3--3--3--3-----3-|
|--5-----5-----5--5--5--5-----5-|--3-----3-----3--3--3--3-----3-|
|--3-----3-----3--3--3--3-----3-|--1-----1-----1--1--1--1-----1-|
|
|  W                               W
|-------------------------------|-------------------------------|
|-------------------------------|-------------------------------|
|-------------------------------|-------------------------------|
|-------------------------------|--3----------------------------|
|--1----------------------------|--5----------------------------|
|--3----------------------------|-------------------------------|


  Eb             Ebm              Bb
   E  E  E   E    E  E  E   E      E  E  E   E    E  E  Q
|-------10----------------------|----------------10----13------|
|----------------------13-------|-------11----------11---------|
|-12-------------11--------11---|-10--------10-----------------|
|----12-----12------10----------|----12------------------------|
|-------------------------------|------------------------------|
|-11--------------8-------------|-10---------------------------|
|  H              H                W
|
|  Q     E.    S  E  E  E.    S    Q     E.    S  E  E  E.   S
|--6-----6-----6--6--6--6-----6-|--6-----6-----6--6--6--6----6-|
|--8-----8-----8--7--7--7-----7-|--6-----6-----6--6--6--6----6-|
|--8-----8-----8--8--8--8-----8-|--7-----7-----7--7--7--7----7-|
|--8-----8-----8--8--8--8-----8-|--8-----8-----8--8--8--8----8-|
|--6-----6-----6--6--6--6-----6-|--8-----8-----8--8--8--8----8-|
|-------------------------------|--6-----6-----6--6--6--6----6-|
|
|  H              H                H              E  E  E  E
|-------------------------------|-----------------------1------|
|-------------------------------|--------------------3-----3---|
|--0----------------------------|-----------------3------------|
|--1--------------4-------------|--3---------------------------|
|-----------------3-------------|--1---------------------------|
|-------------------------------|------------------------------|
                                   W


  Gm                              F
   E  E  E   E    E  E  E   E      E  E  E   E    E  E  E   E
|-------10-------------10-------|-------10-------------10-------|
|-11-------------11-------------|-10-------------10-------------|
|-------------------------------|-------------------------------|
|----12-----12------12-----12---|----12-----12------12-----12---|
|-10----------------------------|--8----------------------------|
|-------------------------------|-------------------------------|
|  W                               W
|
|  Q     E.    S  E  E  E.    S    Q     E.    S  E  E  E.    S
|--3-----3-----3--3--3--3-----3-|--1-----1-----1--1--1--1-----1-|
|--3-----3-----3--3--3--3-----3-|--1-----1-----1--1--1--1-----1-|
|--3-----3-----3--3--3--3-----3-|--2-----2-----2--2--2--2-----2-|
|--5-----5-----5--5--5--5-----5-|--3-----3-----3--3--3--3-----3-|
|--5-----5-----5--5--5--5-----5-|--3-----3-----3--3--3--3-----3-|
|--3-----3-----3--3--3--3-----3-|--1-----1-----1--1--1--1-----1-|
|
|  W                               W
|-------------------------------|-------------------------------|
|-------------------------------|--3----------------------------|
|--0----------------------------|-------------------------------|
|-------------------------------|--3----------------------------|
|--1----------------------------|--5----------------------------|
|--3----------------------------|-------------------------------|


  Eb             Ebm              Bb                  Dm
   E  E  E   E    E  E  E   E      E  E  E   E    H
|-------10----------------------|----------------18---------|
|----------------------13-------|-------11------------------|
|-12-------------11--------11---|-10--------10--------------|
|----12-----12------10----------|----12---------------------|
|-------------------------------|---------------------------|
|-11--------------8-------------|-10------------------------|
|  H              H                W
|
|  Q     E.    S  E  E  E.    S    Q     E.    S  E E E. S
|--6-----6-----6--6--6--6-----6-|--6-----6-----6--6-6-5--5--|
|--8-----8-----8--7--7--7-----7-|--6-----6-----6--6-6-6--6--|
|--8-----8-----8--8--8--8-----8-|--7-----7-----7--7-7-7--7--|
|--8-----8-----8--8--8--8-----8-|--8-----8-----8--8-8-7--7--|
|--6-----6-----6--6--6--6-----6-|--8-----8-----8--8-8-5--5--|
|-------------------------------|--6-----6-----6--6-6-------|
|
|  H              H                H              Q   Q
|-------------------------------|---------------------------|
|--4--------------1-------------|-----------------3---1-----|
|--0----------------------------|--3------------------------|
|--1--------------4-------------|--3------------------------|
|-----------------3-------------|--1------------------------|
|-------------------------------|---------------------------|
                                   W


  Gm                              F
   E  E  E   E    E  E  E   E      E  E  E   E    E  E  E   E
|-10----10-------10----10-------|-10----10-------10----10-------|
|-11----11-------11----11-------|-10----10-------10----10-------|
|-------------------------------|-------------------------------|
|----12-----12------12-----12---|----12-----12------12-----12---|
|-10----------------------------|--8----------------------------|
|-------------------------------|-------------------------------|
|  W                               W
|
|  Q     E.    S  E  E  E.    S    Q     E.    S  E  E  E.    S
|--3-----3-----3--3--3--3-----3-|--1-----1-----1--1--1--1-----1-|
|--3-----3-----3--3--3--3-----3-|--1-----1-----1--1--1--1-----1-|
|--3-----3-----3--3--3--3-----3-|--2-----2-----2--2--2--2-----2-|
|--5-----5-----5--5--5--5-----5-|--3-----3-----3--3--3--3-----3-|
|--5-----5-----5--5--5--5-----5-|--3-----3-----3--3--3--3-----3-|
|--3-----3-----3--3--3--3-----3-|--1-----1-----1--1--1--1-----1-|
|
|  W                               W
|-------------------------------|--1----------------------------|
|--3----------------------------|--3----------------------------|
|--0----------------------------|-------------------------------|
|-------------------------------|--3----------------------------|
|--1----------------------------|--5----------------------------|
|--3----------------------------|-------------------------------|


  Bb             Ebm              D
   E  E  E   E    E  E  E   E      E  E  E   E    H
|-----------11-------------11---|-10------------------------||
|-------11-------------11-------|-----------10--------------||
|-12-------------11-------------|-------12-------11---------||
|----13-------------13----------|----12---------------------||
|-------------------------------|---------------------------||
|-11--------------8-------------|-10------------------------||
|  H              H                W
|
|  Q     E.    S  E  E  E.    S    Q     E.    S  E E E. S
|--6-----6-----6--6--6--6-----6-|--5-----5-----5--5-5-5--5--||
|--8-----8-----8--7--7--7-----7-|--7-----7-----7--7-7-7--7--||
|--8-----8-----8--8--8--8-----8-|--7-----7-----7--7-7-7--7--||
|--8-----8-----8--8--8--8-----8-|--7-----7-----7--7-7-7--7--||
|--6-----6-----6--6--6--6-----6-|--5-----5-----5--5-5-5--5--||
|-------------------------------|---------------------------||
|
|  H              H                H              H
|--3--------------2-------------|--3--------------5---------||
|--4--------------1-------------|--3--------------3---------||
|--0----------------------------|---------------------------||
|--1--------------4-------------|--4--------------4---------||
|-----------------3-------------|--5--------------5---------||
|-------------------------------|---------------------------||


 Chorus #1
  Eb        Cm               Bb        Gm
   Q   Q     E  E  E   E      Q   Q     E  E  E   E
|--------------------------|--------------------------|
|--------------------------|--------------------------|
|--------------------------|---------------------12---|
|-13--------13----10--13---|-12--------12----12-------|
|-10--10----10-10----------|-13--13----13-------------|
|-11---------8-------------|-13--------15-15----------|
|  H         H                H         H
|
|  Q   E. S  E  E  E.    S    Q   E. S  E  E  E.    S
|--6---6--6--3--3--3-----3-|--6---6--6--3--3--3-----3-|
|--8---8--8--4--4--4-----4-|--6---6--6--3--3--3-----3-|
|--8---8--8--5--5--5-----5-|--7---7--7--3--3--3-----3-|
|--8---8--8--5--5--5-----5-|--8---8--8--5--5--5-----5-|
|--6---6--6--3--3--3-----3-|--8---8--8--5--5--5-----5-|
|--------------------------|--6---6--6--3--3--3-----3-|
|
|  H         H                H         H
|--6---------6-------------|--6---------3-------------|
|--8---------4-------------|--8---------6-------------|
|--8---------5-------------|--7---------7-------------|
|--8---------5-------------|--8---------8-------------|
|--------------------------|--------------------------|
|--------------------------|--------------------------|


  Eb           Ebm            Bb             Dm
   Q   E   E    Q     Q        E  E  E   E    E  E  E   E
|---------------------------|--------------------------------|
|---------------------------|----------------11--------------|
|---------------------------|----------------------10--------|
|-13-----------13----10-----|-12--------12-------------------|
|-13--13--10----9-----------|-13----13-----------------13----|
|-15------------8-----------|-13-13-------------13-----------|
|  H            H              W
|
|  Q   E.    S  E  E  E.  S    Q     E.    S  E  E  E.    S
|--6---6-----6-11-11-11--11-|--6-----6-----6--5--5--5-----5--|
|--8---8-----8-11-11-11--11-|--6-----6-----6--6--6--6-----6--|
|--8---8-----8-11-11-11--11-|--7-----7-----7--7--7--7-----7--|
|--8---8-----8-13-13-13--13-|--8-----8-----8--7--7--7-----7--|
|--6---6-----6-13-13-13--13-|--8-----8-----8--5--5--5-----5--|
|--------------11-11-11--11-|--6-----6-----6-----------------|
|
|  H            H              H              E  E  E   E
|--6------------6-----------|--6-------------10-11-10---8----|
|--4------------1-----------|--6--------------6--------------|
|--0------------3-----------|--7--------------7--------------|
|--1------------4-----------|--8--------------7--------------|
|---------------------------|--------------------------------|
|---------------------------|--------------------------------|
                               H              H


  Eb        Cm           Bb  Dm    Gm
   Q   Q     Q    Q       Q   Q     Q    E   E
|----------------------|-------------------------|
|----------------------|-------------------------|
|----------------------|-------------------------|
|-13--------13---10----|--8--10----12------------|
|-10--13----10---------|--8--12----10---10--13---|
|-11---------8---------|-10---------6------------|
|  H         H            H         H
|
|  Q   E. S  E E  E. S    Q   E. S  E E  E.    S
|--6---6--6--3-3--3--3-|--6---5--5--3-3--3-----3-|
|--8---8--8--4-4--4--4-|--6---6--6--3-3--3-----3-|
|--8---8--8--5-5--5--5-|--7---7--7--3-3--3-----3-|
|--8---8--8--5-5--5--5-|--8---7--7--5-5--5-----5-|
|--6---6--6--3-3--3--3-|--8---5--5--5-5--5-----5-|
|----------------------|--6---------3-3--3-----3-|
|
|  H         H            Q   Q     H
|--6---------6---------|--6---5-----3------------|
|--8---------4---------|--6---6-----6------------|
|--8---------5---------|--7---7-----7------------|
|--8---------5---------|--8---7-----8------------|
|----------------------|-------------------------|
|----------------------|-------------------------|


  Eb                          Ebm
   E  E  E   E    Q    Q       E E E   E    Q    Q
|---------------------------|-------------------11----|
|----------------11---------|-------------------------|
|----------------12---------|--------------10---------|
|-13--------13--------13----|-13---8--10--------------|
|-13----13------------------|--9-9--------------------|
|-11-15---------------------|-11----------------------|
|  W                           W
|
|  Q     E.    S  E E  E. S    Q   E.    S  E E  E. S
|--6-----6-----6--6-6--6--6-|--6---6-----6--6-6--6--6-|
|--8-----8-----8--8-8--8--8-|--7---7-----7--7-7--7--7-|
|--8-----8-----8--8-8--8--8-|--8---8-----8--8-8--8--8-|
|--8-----8-----8--8-8--8--8-|--8---8-----8--8-8--8--8-|
|--6-----6-----6--6-6--6--6-|--6---6-----6--6-6--6--6-|
|---------------------------|-------------------------|
|
|  W                           W
|-11------------------------|-11----------------------|
|--8------------------------|--7----------------------|
|--8------------------------|--8----------------------|
|--8------------------------|--8----------------------|
|---------------------------|-------------------------|
|---------------------------|-------------------------|


  Bb
   E  E  E   E    E  E  E   E      E  E  E   E    E  E  E   E
|-18----10-------18----10-------|-18----10-------18----10-------||
|-15----11-------15----11-------|-15----11-------15----11-------||
|-------------------------------|-------------------------------||
|----12-----12------12-----12---|----12-----12------12-----12---||
|-------------------------------|-------------------------------||
|-------------------------------|-------------------------------||
|
|  Q     E.    S  E  E  E.    S    Q     E.    S  E  E  E.    S
|--6-----6-----6--6--6--6-----6-|--6-----6-----6--6--6--6-----6-||
|--6-----6-----6--6--6--6-----6-|--6-----6-----6--6--6--6-----6-||
|--7-----7-----7--7--7--7-----7-|--7-----7-----7--7--7--7-----7-||
|--8-----8-----8--8--8--8-----8-|--8-----8-----8--8--8--8-----8-||
|--8-----8-----8--8--8--8-----8-|--8-----8-----8--8--8--8-----8-||
|--6-----6-----6--6--6--6-----6-|--6-----6-----6--6--6--6-----6-||
|
|  Q     Q        Q     Q          Q     Q        Q     Q
|--6----10--------6----10-------|-18----13-------10-----6-------||
|--6----11--------6----11-------|-18----15-------11-----6-------||
|--7----10--------7----10-------|-19----15-------10-----7-------||
|--8----12--------8----12-------|-20----15-------12-----8-------||
|-------------------------------|-------------------------------||
|-------------------------------|-------------------------------||


 Verse #2
  F                             Cm
   Q    Q       E  E  E   E      +E   Q      Q       Q      E
|-----------------------------|------11-----10------------------|
|-13---13------13-13-15--16---|-(16)-13-----13------13----------|
|-14---14------14-14-14--14---|-(14)----------------14-----14---|
|-----------------------------|----------------------------15---|
|-----------------------------|---------------------------------|
|-----------------------------|---------------------------------|
|
|  Q    E.   S  E  E  E.    S     Q      E.    S  E  E  E.    S
|--1----1----1--1--1--1-----1-|---3------3-----3--3--3--3-----3-|
|--1----1----1--1--1--1-----1-|---4------4-----4--4--4--4-----4-|
|--2----2----2--2--2--2-----2-|---5------5-----5--5--5--5-----5-|
|--3----3----3--3--3--3-----3-|---5------5-----5--5--5--5-----5-|
|--3----3----3--3--3--3-----3-|---3------3-----3--3--3--3-----3-|
|--1----1----1--1--1--1-----1-|---------------------------------|
|
|  E E  E  E    E  E  E   E       E   E  E   E    E  E  E   E
|--8-8--8--8----8--8--8---8---|--11--11-11--11---11-11-11--11---|
|--6-6--6--6----6--6--6---6---|--13--13-13--13---13-13-13--13---|
|--5-5--5--5----5--5--5---5---|--12--12-12--12---12-12-12--12---|
|-----------------------------|---------------------------------|
|-----------------------------|---------------------------------|
|-----------------------------|---------------------------------|

[ Tab from: http://www.guitartabs.cc/tabs/d/dream_theater/answer_lies_within_tab.html ]
  F                              Cm
   +H            E  E  E   E      +Q      Q        Q     Q
|------------------------------|------------------10----11-------|
|---------------------13-------|------------------11----13-------|
|-(14)----------14-15-14--12---|-(12)----10----------------------|
|-(15)----------15-15-----12---|-(12)----12----------------------|
|------------------------------|---------------------------------|
|------------------------------|---------------------------------|
|
|   Q    E.   S  E  E  E.    S     Q      E.    S  E  E  E.    S
|---1----1----1--1--1--1-----1-|---3------3-----3--3--3--3-----3-|
|---1----1----1--1--1--1-----1-|---4------4-----4--4--4--4-----4-|
|---2----2----2--2--2--2-----2-|---5------5-----5--5--5--5-----5-|
|---3----3----3--3--3--3-----3-|---5------5-----5--5--5--5-----5-|
|---3----3----3--3--3--3-----3-|---3------3-----3--3--3--3-----3-|
|---1----1----1--1--1--1-----1-|---------------------------------|
|
|   E  E E  E    E  E  E   E       E   E  E   E    E  E  E   E
|---8--8-8--8----8--8--8---8---|--11--11-11--11---11-11-11--11---|
|---6--6-6--6----6--6--6---6---|--13--13-13--13---13-13-13--13---|
|---5--5-5--5----5--5--5---5---|--12--12-12--12---12-12-12--12---|
|------------------------------|---------------------------------|
|------------------------------|---------------------------------|
|------------------------------|---------------------------------|


  F                             D
   Q    Q       E  E  E   E      +E   Q      Q       Q      E
|-----------------------------|------11-----10------------------|
|------13------13-13-15--16---|-(16)-13-----13------13-----13---|
|-14---14------14-14-14--14---|-(14)----------------14-----14---|
|-15---15---------------------|---------------------------------|
|-----------------------------|---------------------------------|
|-----------------------------|---------------------------------|
|
|  Q    E.   S  E  E  E.    S     Q      E.    S  E  E  E.    S
|--1----1----1--1--1--1-----1-|---5------5-----5--5--5--5-----5-|
|--1----1----1--1--1--1-----1-|---7------7-----7--7--7--7-----7-|
|--2----2----2--2--2--2-----2-|---7------7-----7--7--7--7-----7-|
|--3----3----3--3--3--3-----3-|---7------7-----7--7--7--7-----7-|
|--3----3----3--3--3--3-----3-|---5------5-----5--5--5--5-----5-|
|--1----1----1--1--1--1-----1-|---------------------------------|
|
|  E E  E  E    E  E  E   E       E   E  E   E    E  E  E   E
|--8-8--8--8----8--8--8---8---|--11--11-11--11---11-11-11--11---|
|--6-6--6--6----6--6--6---6---|--13--13-13--13---13-13-13--13---|
|--5-5--5--5----5--5--5---5---|--11--11-11--11---11-11-11--11---|
|-----------------------------|---------------------------------|
|-----------------------------|---------------------------------|
|-----------------------------|---------------------------------|


  Gm                              Eb
   H              E  E  E   E      +Q      Q        Q     Q
|----------------------10--13---|-(13)----11-------10-----8-------|
|-11-------------11-13----------|---------------------------------|
|-12----------------------------|---------------------------------|
|-------------------------------|---------------------------------|
|-------------------------------|---------------------------------|
|-------------------------------|---------------------------------|
|
|  Q     E.    S  E  E  E.    S     Q      E.    S  E  E  E.    S
|--3-----3-----3--3--3--3-----3-|---6------6-----6--6--6--6-----6-|
|--3-----3-----3--3--3--3-----3-|---8------8-----8--8--8--8-----8-|
|--3-----3-----3--3--3--3-----3-|---8------8-----8--8--8--8-----8-|
|--5-----5-----5--5--5--5-----5-|---8------8-----8--8--8--8-----8-|
|--5-----5-----5--5--5--5-----5-|---6------6-----6--6--6--6-----6-|
|--3-----3-----3--3--3--3-----3-|---------------------------------|
|
|  E  E  E   E    E  E  E   E       E   E  E   E    E  E  E   E
|-10-10-10--10---10-10-10--10---|--11--11-11--11---11-11-11--11---|
|-11-11-11--11---11-11-11--11---|--11--11-11--11---11-11-11--11---|
|-12-12-12--12---12-12-12--12---|--12--12-12--12---12-12-12--12---|
|-------------------------------|---------------------------------|
|-------------------------------|---------------------------------|
|-------------------------------|---------------------------------|


  Bb
   E  E  E   E    E  E  E   E      H      H
|-18----10-------18----10-------|-18-----10----------||
|-15----11-------15----11-------|-15-----11----------||
|-------------------------------|--------------------||
|----12-----12------12-----12---|--------------------||
|-------------------------------|--------------------||
|-------------------------------|--------------------||
|
|  Q     E.    S  E  E  E.    S    W
|--6-----6-----6--6--6--6-----6-|--6-----------------||
|--6-----6-----6--6--6--6-----6-|--6-----------------||
|--7-----7-----7--7--7--7-----7-|--7-----------------||
|--8-----8-----8--8--8--8-----8-|--8-----------------||
|--8-----8-----8--8--8--8-----8-|--8-----------------||
|--6-----6-----6--6--6--6-----6-|--6-----------------||
|
|  W                              +W
|--6----------------------------|-(6)----------------||
|--6----------------------------|-(6)----------------||
|--7----------------------------|-(7)----------------||
|--8----------------------------|-(8)----------------||
|-------------------------------|--------------10-12-||
|-------------------------------|---------------3--5-||
                                   H.        E  S  S


 Orchestra Solo
  Gm                                   F
   E   E  E   E    E  E      E   E      E   E  E   E    E  E  E   E
|--------10-----------------10-------|--------10-------------10-------|
|-11--------------11-----------------|-10--------------10-------------|
|------------------------------------|--------------------------------|
|-----12-----12------12---------12---|-----12-----12------12-----12---|
|-10---------------------------------|--8-----------------------------|
|------------------------------------|--------------------------------|
|  W                                    W
|
|  Q      E.    S  E  E      E.    S    Q      E.    S  E  E  E.    S
|--3------3-----3--3--3------3-----3-|--1------1-----1--1--1--1-----1-|
|--3------3-----3--3--3------3-----3-|--1------1-----1--1--1--1-----1-|
|--3------3-----3--3--3------3-----3-|--2------2-----2--2--2--2-----2-|
|--5------5-----5--5--5------5-----5-|--3------3-----3--3--3--3-----3-|
|--5------5-----5--5--5------5-----5-|--3------3-----3--3--3--3-----3-|
|--3------3-----3--3--3------3-----3-|--1------1-----1--1--1--1-----1-|
|
|  H.                    A   E   E     +H.                    E   E
|------------------------------------|--------------------------------|
|------------------------------------|--------------------------------|
|--3--------------------(3)S=7---2---|-(2)------------------------0---|
|------------------------------------|------------------------3-------|
|--1--------------------(1)S=5---0---|-(0)----------------------------|
|------------------------------------|------------------------1---3---|


  Eb              Ebm              Bb
   E   E  E   E    E  E  E   E      E   E  E   E    E  E    E     E
|--------11----------------------|-----------------10------13----10---|
|-----------------------13-------|--------11----------11--------------|
|-12---------12---11--------11---|-10---------10----------------------|
|-----13-------------10----------|-----12-----------------------------|
|--------------------------------|------------------------------------|
|-11---------------8-------------|-10---------------------------------|
|  H               H                W
|
|  Q      E.    S  E  E  E.    S    Q      E.    S  E  E    E.      S
|--6------6-----6--6--6--6-----6-|--6------6-----6--6--6----6-------6-|
|--8------8-----8--7--7--7-----7-|--6------6-----6--6--6----6-------6-|
|--8------8-----8--8--8--8-----8-|--7------7-----7--7--7----7-------7-|
|--8------8-----8--8--8--8-----8-|--8------8-----8--8--8----8-------8-|
|--6------6-----6--6--6--6-----6-|--8------8-----8--8--8----8-------8-|
|--------------------------------|--6------6-----6--6--6----6-------6-|
|
| +E   Q      Q       Q      E     +H               E  S S  S  S  S S
|--------------------------------|------------------------------------|
|---------------------4------3---|-(3)-----------------3-4--3--1------|
|-(0)--2------3------------------|--------------------------------3-2-|
|---------------------1------0---|-(0)-----------------0-1--0---------|
|------0------1------------------|-----------------------------3--1-0-|
|-(3)----------------------------|------------------------------------|


  Gm                                    F
   E  E  E     E    E  E      E   E      E   E  E   E    E  E  E   E
|-------10-------------------10-------|--------10-------------10-------|
|-11---------------11-----------------|-10--------------10-------------|
|-------------------------------------|--------------------------------|
|----12-------12------12---------12---|-----12-----12------12-----12---|
|-10----------------------------------|--8-----------------------------|
|-------------------------------------|--------------------------------|
|  W                                     W
|
|  Q     E.      S  E  E      E.    S    Q      E.    S  E  E  E.    S
|--3-----3-------3--3--3------3-----3-|--1------1-----1--1--1--1-----1-|
|--3-----3-------3--3--3------3-----3-|--1------1-----1--1--1--1-----1-|
|--3-----3-------3--3--3------3-----3-|--2------2-----2--2--2--2-----2-|
|--5-----5-------5--5--5------5-----5-|--3------3-----3--3--3--3-----3-|
|--5-----5-------5--5--5------5-----5-|--3------3-----3--3--3--3-----3-|
|--3-----3-------3--3--3------3-----3-|--1------1-----1--1--1--1-----1-|
|
|  Q     S  S  S S  Q     a   Q          H.                    E   E
|-------------------3----(3)S=6\------|--1-----------------------------|
|----------------3--------------------|------------------------3---4---|
|--3-----0--2--3----0----(0)S=3\------|--------------------------------|
|----------------0--------------------|--3---------------------0---1---|
|--1--------0--1----------------------|--------------------------------|
|--------3----------------------------|--------------------------------|


  Eb              Ebm              D
   E   E  E   E    E  E  E   E      E   E  E   E    H
|--------11----------------------|-10-----------------------------------------|
|-----------------------13-------|------------10------------------------------|
|-12---------12---11--------11---|--------12-------11-------------------------|
|-----13-------------10----------|-----12-------------------------------------|
|--------------------------------|--------------------------------------------|
|-11---------------8-------------|-10-----------------------------------------|
|  H               H                W
|
|  Q      E.    S  E  E  E.    S    Q      E.    S  E     E     E.        S
|--6------6-----6--6--6--6-----6-|--5------5-----5--5-----5-----5---------5---|
|--8------8-----8--7--7--7-----7-|--7------7-----7--7-----7-----7---------7---|
|--8------8-----8--8--8--8-----8-|--7------7-----7--7-----7-----7---------7---|
|--8------8-----8--8--8--8-----8-|--7------7-----7--7-----7-----7---------7---|
|--6------6-----6--6--6--6-----6-|--5------5-----5--5-----5-----5---------5---|
|--------------------------------|--------------------------------------------|
|
| +Q      E   E    E  Q      E     +H               S  S  S  S  S   S  S  S
|--------------------------------|-----------------10----------10-------------|
|-(4)-----3-----------1------3---|-(3)----------------10-----------10---------|
|-------------3----3-------------|------------------7----11-----7-----11------|
|-(1)-----0------------------0---|-(0)-----------------7----12------7----12---|
|-------------1----1--3----------|------------------------9------------9------|
|--------------------------------|--------------------------10-----------10---|


 Final Chorus
  Eb        Cm               Bb        Gm
   Q   Q     E  E  E   E      Q   Q     E  E  E   E
|--------------------------|--------------------------|
|--------------------------|--------------------------|
|--------------------------|---------------------12---|
|-13--------13----10--13---|-12--------12----12-------|
|-10--10----10-10----------|-13--13----13-------------|
|-11---------8-------------|-13--------15-15----------|
|  H         H                H         H
|
|  Q   E. S  E  E  E.    S    Q   E. S  E  E  E.    S
|--6---6--6--3--3--3-----3-|--6---6--6--3--3--3-----3-|
|--8---8--8--4--4--4-----4-|--6---6--6--3--3--3-----3-|
|--8---8--8--5--5--5-----5-|--7---7--7--3--3--3-----3-|
|--8---8--8--5--5--5-----5-|--8---8--8--5--5--5-----5-|
|--6---6--6--3--3--3-----3-|--8---8--8--5--5--5-----5-|
|--------------------------|--6---6--6--3--3--3-----3-|
|
|  H         H                H         H
|-11---------6-------------|--6---------3-------------|
|--8---------4-------------|--8---------6-------------|
|--8---------5-------------|--7---------7-------------|
|--8---------5-------------|--8---------8-------------|
|--------------------------|--------------------------|
|--------------------------|--------------------------|


  Eb           Ebm            Bb             Dm
   Q   E   E    Q     Q        E  E  E   E    E  E  E   E
|---------------------------|--------------------------------|
|---------------------------|----------------11--------------|
|---------------------------|----------------------10--------|
|-13-----------13----10-----|-12--------12-------------------|
|-13--13--10----9-----------|-13----13-----------------13----|
|-15------------8-----------|-13-13-------------13-----------|
|  H            H              W
|
|  Q   E.    S  E  E  E.  S    Q     E.    S  E  E  E.    S
|--6---6-----6-11-11-11--11-|--6-----6-----6--5--5--5-----5--|
|--8---8-----8-11-11-11--11-|--6-----6-----6--6--6--6-----6--|
|--8---8-----8-11-11-11--11-|--7-----7-----7--7--7--7-----7--|
|--8---8-----8-13-13-13--13-|--8-----8-----8--7--7--7-----7--|
|--6---6-----6-13-13-13--13-|--8-----8-----8--5--5--5-----5--|
|--------------11-11-11--11-|--6-----6-----6-----------------|
|
|  H            H              H              E  E  E   E
|--6------------6-----------|--6-------------10-11-10---8----|
|--4------------1-----------|--6--------------6--------------|
|--0------------3-----------|--7--------------7--------------|
|--1------------4-----------|--8--------------7--------------|
|---------------------------|--------------------------------|
|---------------------------|--------------------------------|
                               H              H


  Eb        Cm           Bb  Dm    Gm
   Q   Q     Q    Q       Q   Q     Q    E   E
|----------------------|-------------------------|
|----------------------|-------------------------|
|----------------------|-------------------------|
|-13--------13---10----|--8--10----12------------|
|-10--13----10---------|--8--12----10---10--13---|
|-11---------8---------|-10---------6------------|
|  H         H            H         H
|
|  Q   E. S  E E  E. S    Q   E. S  E E  E.    S
|--6---6--6--3-3--3--3-|--6---5--5--3-3--3-----3-|
|--8---8--8--4-4--4--4-|--6---6--6--3-3--3-----3-|
|--8---8--8--5-5--5--5-|--7---7--7--3-3--3-----3-|
|--8---8--8--5-5--5--5-|--8---7--7--5-5--5-----5-|
|--6---6--6--3-3--3--3-|--8---5--5--5-5--5-----5-|
|----------------------|--6---------3-3--3-----3-|
|
|  H         H            Q   Q     H
|--6---------6---------|--6---5-----3------------|
|--8---------4---------|--6---6-----6------------|
|--8---------5---------|--7---7-----7------------|
|--8---------5---------|--8---7-----8------------|
|----------------------|-------------------------|
|----------------------|-------------------------|


  Eb                   Ebm
   Q  Q     Q   Q       Q  Q    Q   Q
|--------------------|-------------------|
|-----8---------8----|-----7--------7----|
|-----8---------8----|-----8--------8----|
|--------------------|-------------------|
|-10-------10--------|--9-------9--------|
|--------------------|-------------------|
|
|  Q  E. S  E E E. S    Q  E. S E E E. S
|--6--6--6--6-6-6--6-|--6--6--6-6-6-6--6-|
|--8--8--8--8-8-8--8-|--7--7--7-7-7-7--7-|
|--8--8--8--8-8-8--8-|--8--8--8-8-8-8--8-|
|--8--8--8--8-8-8--8-|--8--8--8-8-8-8--8-|
|--6--6--6--6-6-6--6-|--6--6--6-6-6-6--6-|
|--------------------|-------------------|
|
|  W                    W
|-11-----------------|-11----------------|
|--8-----------------|--7----------------|
|--8-----------------|--8----------------|
|--8-----------------|--8----------------|
|--------------------|-------------------|
|--------------------|-------------------|


  D                   Eb        Cm
   Q  Q    Q   Q       Q   Q     Q    Q
|-------------------|----------------------|
|-----7--------7----|----------------------|
|-----7--------7----|----------------------|
|-------------------|-13--------13---10----|
|--5-------5--------|-10--13----10---------|
|-------------------|-11---------8---------|
|                      H         H
|
|  Q  E. S E E E. S    Q   E. S  E E  E. S
|--5--5--5-5-5-5--5-|--6---6--6--3-3--3--3-|
|--7--7--7-7-7-7--7-|--8---8--8--4-4--4--4-|
|--7--7--7-7-7-7--7-|--8---8--8--5-5--5--5-|
|--7--7--7-7-7-7--7-|--8---8--8--5-5--5--5-|
|--5--5--5-5-5-5--5-|--6---6--6--3-3--3--3-|
|-------------------|----------------------|
|
|  W                   H         H
|-14----------------|--6---------6---------|
|-15----------------|--8---------4---------|
|-14----------------|--8---------5---------|
|-12----------------|--8---------5---------|
|-------------------|----------------------|
|-------------------|----------------------|


  Bb  Dm    Gm              Eb                  Ebm
   Q   Q     Q    E   E      Q  Q     Q  Q       Q  Q    Q  Q
|-------------------------|-------------------|-------------------|
|-------------------------|-----8--------8----|-----7-------7-----|
|-------------------------|-----8--------8----|-----8-------8-----|
|--8--10----12------------|-------------------|-------------------|
|--8--12----10---10--13---|-10-------10-------|--9-------9--------|
|-10---------6------------|-------------------|-------------------|
|  H         H
|
|  Q   E. S  E E  E.    S    Q  E. S  Q  E. S    Q  E. S Q  E. S
|--6---5--5--3-3--3-----3-|--6--6--6--6--6--6-|--6--6--6-6--6--6--|
|--6---6--6--3-3--3-----3-|--8--8--8--8--8--8-|--7--7--7-7--7--7--|
|--7---7--7--3-3--3-----3-|--8--8--8--8--8--8-|--8--8--8-8--8--8--|
|--8---7--7--5-5--5-----5-|--8--8--8--8--8--8-|--8--8--8-8--8--8--|
|--8---5--5--5-5--5-----5-|--6--6--6--6--6--6-|--6--6--6-6--6--6--|
|--6---------3-3--3-----3-|-------------------|-------------------|
|
|  Q   Q     H               W                   W
|--6---5-----3------------|-11----------------|-11----------------|
|--6---6-----6------------|--8----------------|--7----------------|
|--7---7-----7------------|--8----------------|--8----------------|
|--8---7-----8------------|-------------------|-------------------|
|-------------------------|-------------------|-------------------|
|-------------------------|-------------------|-------------------|


  Bb
   E  E  E   E    E  E  E   E      E   E  E   E    E  E  E   E
|-10-------------10----13-------|-18-----13-------10-------------|
|-11----11-------11----11-------|-15-----11-------11----11-------|
|-------10----------------------|-----------------------10-------|
|----12-----12------12-----12---|-----12-----12------12-----12---|
|-------------------------------|--------------------------------|
|-------------------------------|--------------------------------|
|
|  Q     E.    S  E  E  E.    S    Q      E.    S  Q     E.    S
|--6-----6-----6--6--6--6-----6-|--6------6-----6--6-----6-----6-|
|--6-----6-----6--6--6--6-----6-|--6------6-----6--6-----6-----6-|
|--7-----7-----7--7--7--7-----7-|--7------7-----7--7-----7-----7-|
|--8-----8-----8--8--8--8-----8-|--8------8-----8--8-----8-----8-|
|--8-----8-----8--8--8--8-----8-|--8------8-----8--8-----8-----8-|
|--6-----6-----6--6--6--6-----6-|--6------6-----6--6-----6-----6-|
|
|  W                              +W
|-------------------------------|--------------------------------|
|-------------------------------|--------------------------------|
|-------------------------------|--------------------------------|
|-------------------------------|--------------------------------|
|--1----------------------------|-(1)----------------------------|
|-------------------------------|--------------------------------|


  Gm                                   F
   E   E  E   E    E  E      E   E      E   E  E   E    E  E  E   E
|--------10-----------------10-------|--------10-------------10-------|
|-11--------------11-----------------|-10--------------10-------------|
|------------------------------------|--------------------------------|
|-----12-----12------12---------12---|-----12-----12------12-----12---|
|-10---------------------------------|--8-----------------------------|
|------------------------------------|--------------------------------|
|  W                                    W
|
|  Q      E.    S  E  E      E.    S    Q      E.    S  E  E  E.    S
|--3------3-----3--3--3------3-----3-|--1------1-----1--1--1--1-----1-|
|--3------3-----3--3--3------3-----3-|--1------1-----1--1--1--1-----1-|
|--3------3-----3--3--3------3-----3-|--2------2-----2--2--2--2-----2-|
|--5------5-----5--5--5------5-----5-|--3------3-----3--3--3--3-----3-|
|--5------5-----5--5--5------5-----5-|--3------3-----3--3--3--3-----3-|
|------------------------------------|--------------------------------|
|
|  H.                    A   E   E     +W
|------------------------------------|--------------------------------|
|------------------------------------|--------------------------------|
|--3--------------------(3)S=7---2---|-(2)----------------------------|
|------------------------------------|--3-----------------------------|
|------------------------------------|--------------------------------|
|--3---------------------------------|--------------------------------|
   W                                    W


  Gm                                   F
   E   E  E   E    E  E      E   E      E   E  E   E    E  E  E   E
|--------10-------13--------10-------|--------10-------13----10--------|
|-11--------------11-----------------|-10--------------10--------------|
|------------------------------------|---------------------------------|
|-----12-----12------12---------12---|-----12-----12------12-----12----|
|-10---------------------------------|--8------------------------------|
|------------------------------------|---------------------------------|
|  W                                    W
|
|  Q      E.    S  E  E      E.    S    Q      E.    S  E  E  E.    S
|--3------3-----3--3--3------3-----3-|--1------1-----1--1--1--1-----1--|
|--3------3-----3--3--3------3-----3-|--1------1-----1--1--1--1-----1--|
|--3------3-----3--3--3------3-----3-|--2------2-----2--2--2--2-----2--|
|--5------5-----5--5--5------5-----5-|--3------3-----3--3--3--3-----3--|
|------------------------------------|---------------------------------|
|------------------------------------|---------------------------------|
|
|  H.                    A   E   E     +W
|------------------------------------|---------------------------------|
|------------------------------------|---------------------------------|
|--3--------------------(3)S=7---2---|-(2)-----------------------------|
|------------------------------------|--3------------------------------|
|------------------------------------|---------------------------------|
|--3---------------------------------|---------------------------------|
   W                                    W


  Gm                              F
   E  E  E   E    E  E  E   E      E  E  E   E    E  E  E   E
|-------10-------------10-------|-------10-------------10-------|
|-11-------------11-------------|-10-------------10-------------|
|-------------------------------|-------------------------------|
|----12-----12------12-----12---|----12-----12------12-----12---|
|-10----------------------------|--8----------------------------|
|-------------------------------|-------------------------------|
|  W                               W
|
|  Q     E.    S  E  E  E.    S    Q     E.    S  E  E  E.    S
|--3-----3-----3--3--3--3-----3-|--1-----1-----1--1--1--1-----1-|
|--3-----3-----3--3--3--3-----3-|--1-----1-----1--1--1--1-----1-|
|--3-----3-----3--3--3--3-----3-|--2-----2-----2--2--2--2-----2-|
|--5-----5-----5--5--5--5-----5-|--3-----3-----3--3--3--3-----3-|
|-------------------------------|-------------------------------|
|-------------------------------|-------------------------------|
|
|  W                               W
|-------------------------------|-------------------------------|
|-------------------------------|-------------------------------|
|--3----------------------------|--2----------------------------|
|-------------------------------|--3----------------------------|
|-------------------------------|-------------------------------|
|--3----------------------------|-------------------------------|


  Gm                              F                        Gm
   E  E  E   E    E  E  E   E      E  E  E   E    H        W
|-------10-------15----10-------|-------10-------13------|------*|
|-11-------------11-------------|-10-------------10------|------*|
|-------------------------------|------------------------|-3----*|
|----12-----12------12-----12---|----12-----12-----------|-0----*|
|-10----------------------------|--8---------------------|------*|
|-------------------------------|------------------------|-3----*|
|  W                               W
|
|  Q     E.    S  E  E  E.    S    Q     E.    S  E E Q    W
|--3-----3-----3--3--3--3-----3-|--1-----1-----1--1-1-1--|-3----*|
|--3-----3-----3--3--3--3-----3-|--1-----1-----1--1-1-1--|-3----*|
|--3-----3-----3--3--3--3-----3-|--2-----2-----2--2-2-2--|------*|
|-------------------------------|------------------------|------*|
|-------------------------------|------------------------|------*|
|-------------------------------|------------------------|------*|
|
|  W                               W                       W
|-------------------------------|------------------------|------*|
|-------------------------------|------------------------|------*|
|--3----------------------------|--2---------------------|------*|
|-------------------------------|--3---------------------|------*|
|-------------------------------|------------------------|------*|
|--3----------------------------|------------------------|-3----*|


Duration Legend
---------------
W - whole; H - half; Q - quarter; E - 8th; S - 16th; T - 32nd; X - 64th; a - acciaccatura
+ - note tied to previous; . - note dotted; .. - note double dotted
Uncapitalized letters represent notes that are staccato (1/2 duration)
Irregular groupings are notated above the duration line
Duration letters will always appear directly above the note/fret number it represents the
duration for.  Duration letters with no fret number below them represent rests.  Multi-
bar rests are notated in the form Wxn, where n is the number of bars to rest for.  Low
melody durations appear below the staff

Tablature Legend
----------------
 h   - hammer-on
 p   - pull-off
 b   - bend
 pb  - pre-bend
 r   - bend release (if no number after the r, then release immediately)
 /\  - slide into or out of (from/to "nowhere")
 s   - legato slide
 S   - shift slide
  - natural harmonic
[n]  - artificial harmonic
n(n) - tapped harmonic
 ~   - vibrato
 tr  - trill
 T   - tap
 TP  - trem. picking
 PM  - palm muting
\n/  - tremolo bar dip; n = amount to dip
 \n  - tremolo bar down
 n/  - tremolo bar up
/n\  - tremolo bar inverted dip
 =   - hold bend; also acts as connecting device for hammers/pulls
 <>  - volume swell (louder/softer)
 x   - on rhythm slash represents muted slash
 o   - on rhythm slash represents single note slash

Misc Legend
-----------
 |  - bar
||  - double bar
||o - repeat start
o|| - repeat end
*|  - double bar (ending)
 :  - bar (freetime)
 $  - Segno
 &  - Coda
Tempo markers -  = BPM(8/16=s8/s16), where s8 = swing 8ths, s16 = swing 16ths


***************************************************************************************
* Generated using Power Tab Editor by Brad Larsen - http://powertab.guitarnetwork.org *
***************************************************************************************
Comments