Dream Theater - Another Day Chords & Tabs

 

Another Day Chords & Tabs

Dream Theater Chords & Tabs

Version: 3 Type: Tab 0 ratings
1 star 2 stars 3 stars 4 stars 5 stars
comments

Another Day Tab

   
ream Theater - Another Day

Transcribed by: Jason Perez
note: I slowed this way down & got all the correct notes!
------------------------------------------
Key:
(b) = bend
( ) = note bend is released to    
^   = hammer/pull off
/   = slide up
\   = slide down
~   = vibrato
tr  = trill (repeated hammers/pulls)
ah  = artificial (pinched) harmonic
|   = measure break
---> = Continued next line
-----------------------------------------
Slowley=69 in 4/4 time

Intro:  
E |-------------------------------------------|
B |--0--------0-----------0--------0---------.|
G |------3-------3------------3-------3-3-----| (repeat)
D |--------4-------4------------4---------4---| 
A |--------------------------------4---------.|
E |--4--------2--------2--0-------------2-----|


(Intro Solo)        
E |---------------------|----------------------------------------|-----------------------| 
B |--12~---11--9--------|----------------------------------------|--------------------9~-|
G |--------------8~-----|-(8)\------4--6^8--6~---4\3~---4^6--4~--|----6--3~-------11-----|
D |---------------------|------4^6-------------------------------|------------/9---------|
A |---------------------|----------------------------------------|-----------------------|
E |---------------------|----------------------------------------|-----------------------|
    ..(continued)
E |----------14~--------|
B |--11^12--------------|
G |---------------------|
D |---------------------|
A |---------------------|
E |---------------------|


Rhythm 1 (volume swells w/ knob)
E |-----------------|-----------------|-----------------|----------------|----------------|
B |-----------------|-----------------|-----------------|---------7~-----|--5~------------|
G |--------4~---6~--|-8~------9~------|--8~------6~-----|-4~-------------|---------4~-----|
D |-----------------|-----------------|-----------------|----------------|----------------|
A |-----------------|-----------------|-----------------|----------------|----------------|
E |-----------------|-----------------|-----------------|----------------|----------------|

Chorus:
E --------------0----------------0-----|------------0------------0----------|
B --------0-------0----------0-----0---|--------0-----0------------0--------|
G ------6-----------6------8---------8-|------9---------9------------8------|  
D ----6-----6------------9-----9-------|----9-----9------------9-------9----|
A --4------------------6---------------|--7------------------9-----------9--|
E -------------------------------------|-------------------7----------------|


  
E --------------0----------------0-----|------------0-----------------------|
B --------0-------0----------0-----0---|--------0-----0----------0----------|
G ------6-----------6------8---------8-|------9---------9------------3------|  
D ----6-----6------------9-----9-------|----9-----9------------4-------4----|
A --4------------------6---------------|--7------------------4-----------4--|
E -------------------------------------|-------------------2----------------|

 
E ------------------------|---------4--------------------------|----------0----------------0---0---|
B --------------4--5------|------------4------4----------------|--------7------7-------------8---8-|
G ----------4------4------|---------------------4-----------3--|------9----------9-------8---------|
D --------8--------2------|-------6-------4-------4------4-----|----9------------------9-----------|
A ------6----------4------|-----6---------2------------4-------|---------------------9-------------|
E ----4-------------------|--4----------------------2----------|--0----------------7---------------|
[ Tab from: http://www.guitartabs.cc/tabs/d/dream_theater/another_day_tab_ver_3.html ]
E ----0-------0------------|
B ----0-------0-----------.|
G ----6-------3------------|(Repeat)              (Play Chorus Again Here)
D ----7-------4------------|  
A ----7-------4-----------.|
E ----5-------2-------0----|


                                 (These chords are held with a moving line with it)  
E -------------------------|       B5       A5      G#      F#5     E5
B -------------------------|
G --9~---------------------|       (use distortion)
D -----4-------------------|
A -------7-6-4-------------|
E -------------7-6-4-4--0--|


Guitar Solo:
  (1/2 bend)                        (full bend)         (1/2 bend)                           (1/2 bend)
E ----------------------------------|------------------------------------------------|--------------------------------
B --11(b)---(11)^9-11(b)----(11)^9--|-12(b)----12--(12)~--11(b)-(11)-----------------|----12~-------------------------
G ----------------------------------|-------------------------------11^\6~---------8-|-9~----8(b)--(8)--8-9-11-9-8----
D ----------------------------------|---------------------------------------8^9^11---|-----------------------------11-
A ----------------------------------|------------------------------------------------|--------------------------------
E ----------------------------------|------------------------------------------------|--------------------------------
   
                         note: these are 32th note triplets
E ----------------------------------------------------------------------16-18-19-|
B -------------------------------------------------------------16-17-19----------|
G ---------------------------------13-15-16----------15-16--18-------------------|   --->
D -11-9-7----7------------13-14-16----------14-16-18-----------------------------|
A --------11---9^11\9--9---------------------------------------------------------|
E -------------------------------------------------------------------------------|

 (full bend)    (full bend)        (fl. bnd) (1.5 bnd) 
E -21(b)--(21)--21(b)--21~----19-21-|-21(b)--21(b)---(21)--19-18-19-21-|
B ------------------------/21-------|----------------------------------|
G ----------------------------------|----------------------------------|  --->
D ----------------------------------|----------------------------------|
A ----------------------------------|----------------------------------|
E ----------------------------------|----------------------------------|

E -19-16---------------------------------------------------------19-|
B -------19-16----19-16------------------------------------19^21----|
G -------------18-------18-16----18-16----16---------16^20----------|   --->
D ----------------------------18-------16^16^18^16------------------|
A -------------------------------------------------18---------------|
E ------------------------------------------------------------------|

                                                    (hmr on pull off 32th notes)     
E -17~----21-------19-------16-------14------11-----9--------------------------------------------|
B -----19----19^17----17^14----14^12----12^9----9^7---[7-9-7\-5-7-5-3-5-4-5-0-4-5]-[12-5-4-0]-2~-|
G -----------------------------------------------------------------------------------------------|
D -----------------------------------------------------------------------------------------------|
A -----------------------------------------------------------------------------------------------|
E -----------------------------------------------------------------------------------------------|

note: I think you can finish the rest if you can play all the previous parts.  Good Luck!

 Bookmark this page right now! (Ctrl+D)
Comments