Dream Theater - Acid Rain Chords & Tabs

 

Dream Theater Chords & Tabs

Version: 1 Type: Tab 0 ratings
1 star 2 stars 3 stars 4 stars 5 stars
comments

Acid Rain Tab

   
ACID RAIN - DREAM THEATER

God this song is awesome. Up there with Classical Gas and YYZ 

4/4
  Gtr I
|---------------------------------|---------------------------------|
|---------------------------------|---------------------------------|
|---------------------------------|---------------------------------|
|---------------------------------|---------------------------------|
|---------------------------------|-----------------5p0-----0-------|
|-7p0-----0-------7p0-----0-------|-7p0-----0-----------7p0---7p0---|
|-----7p0---3p0-0-----7p0---3p0-0-|-----7p0---3p0-0---------------7-|


|---------------------------------|---------------------------------|
|---------------------------------|---------------------------------|
|---------------------------------|---------------------------------|
|---------------------------------|---------------------------------|
|---------------------------------|-------5-----7p5---5-------------|
|-7p0-----0-------7p0-----0-------|-7p5-7---7-5-----7---7-5-7p5-----|
|-----7p0---3p0-0-----7p0---3p0-0-|-----------------------------7-5-|
|
|                                   Gtr II
|---------------------------------|---------------------------------|
|---------------------------------|---------------------------------|
|---------------------------------|-------7-----9p7---7-------------|
|---------------------------------|-9p7-9---9-7-----9---9-7-9p7-----|
|---------------------------------|-----------------------------9-7-|
|---------------------------------|---------------------------------|
|---------------------------------|---------------------------------|


  Gtrs I, II
|---------------------------------|---------------------------------|
|---------------------------------|---------------------------------|
|---------------------------------|---------------------------------|
|---------------------------------|---------------------------------|
|---------------------------------|-----------------5p0-----0-------|
|-7p0-----0-------7p0-----0-------|-7p0-----0-----------7p0---7p0---|
|-----7p0---3p0-0-----7p0---3p0-0-|-----7p0---3p0-0---------------7-|


                                    PM-----------------------------|
|---------------------------------|----------------------------------|
|---------------------------------|----------------------------------|
|---------------------------------|----------------------------------|
|---------------------------------|-5-7-9-4-5-7----------------------|
|---------------------------------|-------------7-9-10-5-7-9-4-5-7-0-|
|-7p0-----0-------7p0-----0-------|----------------------------------|
|-----7p0---3p0-0-----7p0---3p0-0-|----------------------------------|


  Gtr I   Gtr II  Gtr I   Gtr II    Gtr I   Gtr II  Gtr I     Gtr II
|-7p0-----0-------7p0-----0-------|-7p0-----0-------10p0------0--------|
|-----7p0---3p0-0-----7p0---3p0-0-|-----7p0---3p0-0------12p0---10p0-0-|
|---------------------------------|------------------------------------|
|---------------------------------|------------------------------------|
|---------------------------------|------------------------------------|
|---------------------------------|------------------------------------|
|---------------------------------|------------------------------------|


  Gtr I   Gtr II  Gtr I   Gtr II    Gtr I     Gtr II   Gtr I   Gtr II
|-7p0-----0-------7p0-----0-------|-10-9------0--------5p0-----0-------|
|-----7p0---3p0-0-----7p0---3p0-0-|------12p0---10p0-0-----3p0---7p0-0-|
|---------------------------------|------------------------------------|
|---------------------------------|------------------------------------|
|---------------------------------|------------------------------------|
|---------------------------------|------------------------------------|
|---------------------------------|------------------------------------|


  Gtr I   Gtr II  Gtr I   Gtr II    Gtr I   Gtr II  Gtr I     Gtr II
|-7p0-----0-------7p0-----0-------|-7p0-----0-------10-9------0--------|
|-----7p0---3p0-0-----7p0---3p0-0-|-----7p0---3p0-0------12p0---10p0-0-|
|---------------------------------|------------------------------------|
|---------------------------------|------------------------------------|
|---------------------------------|------------------------------------|
|---------------------------------|------------------------------------|
|---------------------------------|------------------------------------|


  Gtr I   Gtr II  Gtr I   Gtr II    Gtrs I, II
|-7p0-----0-------7p0-----0-------|---------------------------------------|
|-----7p0---3p0-0-----7p0---3p0-0-|-5p3p0-----0---------------------------|
|---------------------------------|-------4p0---4p2p0---2p0-----0---------|
|---------------------------------|-------------------4-----4p0---4p2p0---|
|---------------------------------|-------------------------------------4-|
|---------------------------------|---------------------------------------|
|---------------------------------|---------------------------------------|


        PM|  PM    PM|  PM    PM-------------------------------------|
                                   3x
||---------------------------------||----------------------------------|
||---------------------------------||----------------------------------|
||o-------------------------------o||----------------------------------|
||---------------------------------||-5-7-9-4-5-7----------------------|
||o-2p0--------2p0--------2p0-----o||-------------7-9-10-5-7-9-4-5-7-0-|
||---------------------------------||----------------------------------|
||------0-0--0-----0-0--0-----0-0--||----------------------------------|


    PM---------------------------------
                                   4x
||---------------------------------||-|
||---------------------------------||-|
||o-------------------------------o||-|
||---------------------------------||-|
||o-------------------------------o||-|
||---------------------------------||-|
||--5-3-0-0--0-5-3-0-0--0-5-3-0-0--||-|


 ---|     PM     PM      PM
                                              8x
||--------------------------------------------||
||--------------------------------------------||
||o------------------------------------------o||
||--------------------------------------------||
||o------------------------------------9h10--o||
||----7h9---9h10---10h12---12h14--------------||
||--0-----0------0-------0-------10h12--------||


    B5                D5     E5                F#5
||-----------|-------------|----------|-------------|
||-----------|-------------|----------|-------------|
||o----------|-------------|----------|-------------|
||-----------|-------------|----------|-------------|
||o----------|-------------|----------|-------------|
||--2--------|-(2)----5----|-7--------|-(7)----9----|
||--0--------|-(0)----3----|-5--------|-(5)----7----|


  G5                  A5      F#5        F#/A#
|-----------|---------------|----------|--------||
|-----------|---------------|----------|--------||
|-----------|---------------|----------|-------o||
|-----------|---------------|----------|--------||
|-----------|---------------|----------|-------o||
|-10--------|-(10)----12----|-9--------|-14-----||
|--8--------|--(8)----10----|-7--------|-11-----||


    N.C.(Bm)
   6/8       5/8      6/8       4/4
||----------|--------|---------|---------------||
||----------|--------|---------|---------------||
||o---------|--------|---------|--------------o||
||----------|--------|---------|---------------||
||o---------|--------|---------|--------------o||
||----------|--------|---------|--------7--9---||
||--0---3---|-5---8--|-0---3---|-8--10---------||


   Unison Lead
    G5
    Gtr III
||--------------------------------14-17-15h17p15p14----|
||--15-14----14-------------14-15-------------------17-|
||o-------16----16-14----16----------------------------|
||--------------------17-------------------------------|
||o----------------------------------------------------|
||-----------------------------------------------------|
||-----------------------------------------------------|
|
|   Gtrs I, II
||-----------------------------------------------------|
||---3-------------------------------------------------|
||o--0-------------------------------------------------|
||---0-------------------------------------------------|
||o----------------------------------------------------|
||---3-------------------------------------------------|
||-----------------------------------------------------|


  E5                         F#5
                                          ~~
|-14-12----12--------------------------------|
|-------15----14-12-15-14--------------------|
|-------------------------16-14-16-----------|
|----------------------------------16p14-12--|
|--------------------------------------------|
|--------------------------------------------|
|--------------------------------------------|
|
|--------------------------------------------|
|--------------------------------------------|
|--------------------------------------------|
|--------------------------------------------|
|--2--------------------------4--------------|
|--0--------------------------2--------------|
|--------------------------------------------|


  1.
  G5                                  A5
|-------------------------------14-17-15h17p15p14----|
|-15-14----14-------------14-15-------------------17-|
|-------16----16-14----16----------------------------|
|-------------------17-------------------------------|
|----------------------------------------------------|
|----------------------------------------------------|
|----------------------------------------------------|
|
|----------------------------------------------------|
|----------------------------------------------------|
|----------------------------------------------------|
|----------------------------------------------------|
|--5-----------------------------------7-------------|
|--3-----------------------------------5-------------|
|----------------------------------------------------|


  B5
|----19-------17-------14-------12----14p12-----||
|-15----15s14----14s12----12s10----10-------15--||
|----------------------------------------------o||
|-----------------------------------------------||
|----------------------------------------------o||
|-----------------------------------------------||
|-----------------------------------------------||
|
|-----------------------------------------------||
|-----------------------------------------------||
|----------------------------------------------o||
|-----------------------------------------------||
|--9-------------------------------------------o||
|--7--------------------------------------------||
|-----------------------------------------------||


  2.
  G5                                  D5       C#5
  Gtr III
|-------------------------------14-17-15h17p15p14----|
|-15-14----14-------------14-15-------------------17-|
|-------16----16-14----16----------------------------|
|-------------------17-------------------------------|
|----------------------------------------------------|
|----------------------------------------------------|
|----------------------------------------------------|
|
| Gtrs I, II
|----------------------------------------------------|
|----------------------------------------------------|
|----------------------------------------------------|
|----------------------------------------------------|
|--5-------------------------------------------------|
|--3-----------------------------------5--------4----|
|--------------------------------------3--------2----|
|
|----------------------------------------------------|
|----------------------------------------------------|
|----------------------------------------------------|
|----------------------------------------------------|
|----------------------------------------------------|
|----------------------------------------------------|
|----------------------------------------------------|


                                                             Drum Break
  B5                                                          N.C.(Bm)
                                                         ~~
|----------------------------12-14-17-14-17-19-17-19-21-19--|-(19)\-----------------|
|-12-14-15-14-15-17-15-17-19--------------------------------|-----------------------|
|-----------------------------------------------------------|-----------------------|
|-----------------------------------------------------------|-----------------------|
|-----------------------------------------------------------|-----------------------|
|-----------------------------------------------------------|-----------------------|
|-----------------------------------------------------------|-----------------------|
|
|                                                             Gtr II
|                                                               ~~~~~
|-----------------------------------------------------------|-----------------------|
|-----------------------------------------------------------|-----------------------|
|-----------------------------------------------------------|-----------------------|
|-----------------------------------------------------------|-----------------------|
|-----------------------------------------------------------|-----------------------|
|--2--------------------------------------------------------|-----------------------|
|--0--------------------------------------------------------|-/15------(15)s=(3)----|
|
|                                                             Gtr I
|                                                               ~~~~~
|-----------------------------------------------------------|-----------------------|
|-----------------------------------------------------------|-----------------------|
|-----------------------------------------------------------|-----------------------|
|-----------------------------------------------------------|-----------------------|
|-----------------------------------------------------------|-----------------------|
|-----------------------------------------------------------|-----------------------|
|-----------------------------------------------------------|-/12------(12)s=(3)----|


|-----|
|-----|
|-----|
|-----|
|-----|
|-----|
|-----|


 Guitar/Keyboard Lead
  N.C.(Em)
  Gtr III
|-------------------------------------------------|
|-------------------12-17-------------------12-17-|
|-------12-16-------------------12-16-------------|
|-12-14-------12-14-------12-14-------12-14-------|
|-------------------------------------------------|
|-------------------------------------------------|
|-------------------------------------------------|


|-------12-17S19-15-------------------------------|
|-------------------------------------------------|
|-12-14-------------18-16-19-18-17-16-------------|
|-------------------------------------19-18-17-16-|
|-------------------------------------------------|
|-------------------------------------------------|
|-------------------------------------------------|


|-------------------------15-19-17-15s14----------|
|----15-19-15-17-15----17----------------17-15-14-|
|-------------------18----------------------------|
|-17----------------------------------------------|
|-------------------------------------------------|
|-------------------------------------------------|
|-------------------------------------------------|


|--------------------------------------------------------|
|-17-15-14-17-15-14----------------15----14p12-----------|
|-------------------17-16-15-14-12----12-------14-12-11--|
|--------------------------------------------------------|
|--------------------------------------------------------|
|--------------------------------------------------------|
|--------------------------------------------------------|


|-------------------------------------------------|
|-------------------------------------------------|
|----------11----11-12-11----11----------------12-|
|-14-12-14----14----------14----14-12-16-14-16----|
|-------------------------------------------------|
|-------------------------------------------------|
|-------------------------------------------------|


|-------------------------------------------------|
|-------------------------------------------------|
|----12-14-12----12----------------14----14-16-14-|
|-16----------16----16-14-17-16-17----17----------|
|-------------------------------------------------|
|-------------------------------------------------|
|-------------------------------------------------|


|-------------------------------------------------|
|-------------------------------------------------|
|----14----------------16----16-18-16----16-------|
|-17----17-16-19-17-19----19----------19----19-17-|
|-------------------------------------------------|
|-------------------------------------------------|
|-------------------------------------------------|


                                                         ~~
|----------------------------------------------17-19-21-19-(19)\--|
|----------------------------17-19-20-17-19-20--------------------|
|----------16-18-19-16-18-19--------------------------------------|
|-16-17-19--------------------------------------------------------|
|-----------------------------------------------------------------|
|-----------------------------------------------------------------|
|-----------------------------------------------------------------|


  Gtr IV
|-------------------------------------------------|
|-------------------17-20-------------------17-20-|
|-------16-21-------------------16-21-------------|
|-16-17-------16-17-------16-17-------16-17-------|
|-------------------------------------------------|
|-------------------------------------------------|
|-------------------------------------------------|
|
| Gtr III
|-------------------------------------------------|
|-------------------12-17-------------------12-17-|
|-------12-16-------------------12-16-------------|
|-12-14-------12-14-------12-14-------12-14-------|
|-------------------------------------------------|
|-------------------------------------------------|
|-------------------------------------------------|


|-------17-21--22-19-------------------------------|
|--------------------------24-23-22-20-------------|
|-18-21--------------21-19-------------23-22-21-20-|
|--------------------------------------------------|
|--------------------------------------------------|
|--------------------------------------------------|
|--------------------------------------------------|
|
|-------12-17-/19-15-------------------------------|
|--------------------------------------------------|
|-12-14--------------18-16-19-18-17-16-------------|
|--------------------------------------19-18-17-16-|
|--------------------------------------------------|
|--------------------------------------------------|
|--------------------------------------------------|


|-------------------------19-22-21-19s17----------|
|----19-22-19-20-19----20----------------20-19-17-|
|-19----------------21----------------------------|
|-------------------------------------------------|
|-------------------------------------------------|
|-------------------------------------------------|
|-------------------------------------------------|
|
|-------------------------15-19-17-15s14----------|
|----15-19-15-17-15----17----------------17-15-14-|
|-------------------18----------------------------|
|-17----------------------------------------------|
|-------------------------------------------------|
|-------------------------------------------------|
|-------------------------------------------------|


|--------------------------------------------------------|
|-20-19-17-20-19-17----------------19----17p15-----------|
|-------------------20-19-18-17-16----16-------18-16-14--|
|--------------------------------------------------------|
|--------------------------------------------------------|
|--------------------------------------------------------|
|--------------------------------------------------------|
|
|--------------------------------------------------------|
|-17-15-14-17-15-14----------------15----14p12-----------|
|-------------------17-16-15-14-12----12-------14-12-11--|
|--------------------------------------------------------|
|--------------------------------------------------------|
|--------------------------------------------------------|
|--------------------------------------------------------|


|-------------------------------------------------|
|-------------------------------------------------|
|----------14----14-16-14----14----------------16-|
|-17-16-17----17----------17----17-16-19-17-19----|
|-------------------------------------------------|
|-------------------------------------------------|
|-------------------------------------------------|
|
|-------------------------------------------------|
|-------------------------------------------------|
|----------11----11-12-11----11----------------12-|
|-14-12-14----14----------14----14-12-16-14-16----|
|-------------------------------------------------|
|-------------------------------------------------|
|-------------------------------------------------|


|-------------------------------------------------|
|-------------------------------------------------|
|----16-18-16----16----------------18----18-19-18-|
|-19----------19----19-17-21-19-21----21----------|
|-------------------------------------------------|
|-------------------------------------------------|
|-------------------------------------------------|
|
|-------------------------------------------------|
|-------------------------------------------------|
|----12-14-12----12----------------14----14-16-14-|
|-16----------16----16-14-17-16-17----17----------|
|-------------------------------------------------|
|-------------------------------------------------|
|-------------------------------------------------|


|-------------------------------------------------|
|-------------------------------------------------|
|----18----------------19----19-21-19----19-------|
|-21----21-19-23-21-23----23----------23----23-21-|
|-------------------------------------------------|
|-------------------------------------------------|
|-------------------------------------------------|
|
|-------------------------------------------------|
|-------------------------------------------------|
|----14----------------16----16-18-16----16-------|
|-17----17-16-19-17-19----19----------19----19-17-|
|-------------------------------------------------|
|-------------------------------------------------|
|-------------------------------------------------|


|----------------------------------------------21-22-24-22--------|
|----------------------------20-22-24-20-22-24--------------------|
|----------19-21-23-19-21-23--------------------------------------|
|-19-21-23--------------------------------------------------------|
|-----------------------------------------------------------------|
|-----------------------------------------------------------------|
|-----------------------------------------------------------------|
|
|                                                        ~~
|----------------------------------------------17-19-21-19-(19)\--|
|----------------------------17-19-20-17-19-20--------------------|
|----------16-18-19-16-18-19--------------------------------------|
|-16-17-19--------------------------------------------------------|
|-----------------------------------------------------------------|
|-----------------------------------------------------------------|
|-----------------------------------------------------------------|


   3/4
    Gtr III
     T       T       T       T       T       T
||--------------------------------------------------|
||--15p10p8-14p10p8-12p10p8-14p10p8-15p10p8-17p10p8-|
||o-------------------------------------------------|
||--------------------------------------------------|
||o-------------------------------------------------|
||--------------------------------------------------|
||--------------------------------------------------|
|
|   Gtrs I, II
|    ~~~~~~~~~~~~~~~~~~~~~~~~~~~~~~~~~~~~~~~~~~~~~~~~
||--------------------------------------------------|
||--------------------------------------------------|
||o-------------------------------------------------|
||--------------------------------------------------|
||o-------------------------------------------------|
||---3----------------------------------------------|
||--------------------------------------------------|


   T       T       T       T       T       T
|--------------------------------------------------|
|-15p10p8-14p10p8-12p10p8-14p10p8-15p10p8-19p10p8--|
|--------------------------------------------------|
|--------------------------------------------------|
|--------------------------------------------------|
|--------------------------------------------------|
|--------------------------------------------------|
|
|~~~~~
|--------------------------------------------------|
|--------------------------------------------------|
|--------------------------------------------------|
|--------------------------------------------------|
|--------------------------------------------------|
|--5-----------------------------------------------|
|--------------------------------------------------|


   T        T        T        T        T        T
|----------------------------------------------19p12p7-|
|-17p12p10-15p12p10-14p12p10-15p12p10-17p12p10---------|
|------------------------------------------------------|
|------------------------------------------------------|
|------------------------------------------------------|
|------------------------------------------------------|
|------------------------------------------------------|
|
|  ~~~~~~~~~~~~~~~~~~~~~~~~~~~~~~~~~~~~~~~~~~~~~~~~~~~~~
|------------------------------------------------------|
|------------------------------------------------------|
|------------------------------------------------------|
|------------------------------------------------------|
|------------------------------------------------------|
|-/7---------------------------------------------------|
|------------------------------------------------------|


   T       T       T       T        T        T
|-17p12p7-15p12p7-14p12p7-----------------------------|
|-------------------------17p12p10-15p12p10-14p12p10--|
|-----------------------------------------------------|
|-----------------------------------------------------|
|-----------------------------------------------------|
|-----------------------------------------------------|
|-----------------------------------------------------|
|
|~~~~~
|-----------------------------------------------------|
|-----------------------------------------------------|
|-----------------------------------------------------|
|-----------------------------------------------------|
|-----------------------------------------------------|
|-/9--------------------------------------------------|
|-----------------------------------------------------|


 3/4
   T       T       T       T       T       T
|-------------------------------------------------|
|-15p10p8-14p10p8-12p10p8-14p10p8-15p10p8-17p10p8-|
|-------------------------------------------------|
|-------------------------------------------------|
|-------------------------------------------------|
|-------------------------------------------------|
|-------------------------------------------------|
|
|  ~~~~~~~~~~~~~~~~~~~~~~~~~~~~~~~~~~~~~~~~~~~~~~~~
|-------------------------------------------------|
|-------------------------------------------------|
|-------------------------------------------------|
|-------------------------------------------------|
|-------------------------------------------------|
|--3----------------------------------------------|
|-------------------------------------------------|


   T       T       T       T       T       T
|-------------------------------------------------|
|-15p10p8-14p10p8-12p10p8-14p10p8-15p10p8-19p10p8-|
|-------------------------------------------------|
|-------------------------------------------------|
|-------------------------------------------------|
|-------------------------------------------------|
|-------------------------------------------------|
|
|~~~~~
|-------------------------------------------------|
|-------------------------------------------------|
|-------------------------------------------------|
|-------------------------------------------------|
|-------------------------------------------------|
|--5----------------------------------------------|
|-------------------------------------------------|


  Gtr III
   T        T        T        T        T        T
|----------------------------------------------19p12p7-|
|-17p12p10-15p12p10-14p12p10-15p12p10-17p12p10---------|
|------------------------------------------------------|
|------------------------------------------------------|
|------------------------------------------------------|
|------------------------------------------------------|
|------------------------------------------------------|
|
| Gtrs I, II
|  ~~~~~~~~~~~~~~~~~~~~~~~~~~~~~~~~~~~~~~~~~~~~~~~~~~~~~
|------------------------------------------------------|
|------------------------------------------------------|
|------------------------------------------------------|
|------------------------------------------------------|
|------------------------------------------------------|
|-/7---------------------------------------------------|
|------------------------------------------------------|
|
|------------------------------------------------------|
|------------------------------------------------------|
|------------------------------------------------------|
|------------------------------------------------------|
|------------------------------------------------------|
|------------------------------------------------------|
|------------------------------------------------------|


  1.
   T       T       T       T        T        T
|-17p12p7-15p12p7-14p12p7------------------------------||
|-------------------------17p12p10-15p12p10-14p12p10---||
|-----------------------------------------------------o||
|------------------------------------------------------||
|-----------------------------------------------------o||
|------------------------------------------------------||
|------------------------------------------------------||
|
| Gtr II
|~~~~~
|------------------------------------------------------||
|------------------------------------------------------||
|-----------------------------------------------------o||
|------------------------------------------------------||
|-----------------------------------------------------o||
|-/9---------------------------------------------------||
|------------------------------------------------------||
|
| Gtr I
|  ~~~
|------------------------------------------------------||
|------------------------------------------------------||
|-----------------------------------------------------o||
|------------------------------------------------------||
|-/7--------------------------------------------------o||
|------------------------------------------------------||
|------------------------------------------------------||


  2.
   T       T       T       T        T         T
|-17p12p7-15p12p7-14p12p7-----------------------------|
|-------------------------17p12p10-15p=12p10-14p12p10-|
|-----------------------------------------------------|
|-----------------------------------------------------|
|-----------------------------------------------------|
|-----------------------------------------------------|
|-----------------------------------------------------|
|
| Gtr II
|  ~~~~~~~~~~~~~~~~~~~~~~~~~~~~~~~~~~~~
|-----------------------------------------------------|
|-----------------------------------------------------|
|-----------------------------------------------------|
|-----------------------------------------------------|
|-----------------------------------------------------|
|-/9-------------------------------(9)--------9s=7p=5-|
|-----------------------------------------------------|
|
| Gtr I
|  ~~~~~~~~~~~~~~~~~~~~~~~~~~~~~~~~~~~~
|-----------------------------------------------------|
|-----------------------------------------------------|
|-----------------------------------------------------|
|-----------------------------------------------------|
|-/7-------------------------------(7)----------------|
|---------------------------------------------9s=7p=5-|
|-----------------------------------------------------|


  B5         N.C.(Bm)
 2/4        4/4
                                             8x
|--------||----------------------------------||
|-12\----||----------------------------------||
|--------||o--------------------------------o||
|--------||----------------------------------||
|--------||o--------------------------------o||
|--------||----------------------------------||
|--------||----------------------------------||
|
|            Gtrs I, II
|                PM|     PM-------------|
|                                            8x
|--------||----------------------------------||
|--------||----------------------------------||
|--------||o--------------------------------o||
|--------||----------------------------------||
|--9-----||o-0h2-----0h2--------------------o||
|--7-----||----------------------------------||
|--------||------0-0-----0-0-0-0-0-0--0-0----||
|
|                                            8x
|--------||----------------------------------||
|--------||----------------------------------||
|--------||o--------------------------------o||
|--------||----------------------------------||
|--9-----||o--------------------------------o||
|--7-----||----------------------------------||
|--------||----------------------------------||


 Interlude/Solo
  B5
  Gtrs I, II               Gtr III
|--------------|---------|----------|------------------------|
|--------------|---------|----------|------------------------|
|--------------|---------|--------7-|-9-9-7-9--9b10.5-(9)-7--|
|--------------|---------|----------|------------------------|
|-9--(9)\------|---------|----------|------------------------|
|-7--(7)\------|---------|----------|------------------------|
|--------------|---------|----------|------------------------|


   ~~~
|----------------|-------------------------|
|----------------|-------------------9b9.5-|
|-(7)------------|-------------------9b9.5-|
|-----------7tr9h|=9p7h9-(9)-(9)-----------|
|----------------|-------------------------|
|----------------|-------------------------|
|----------------|-------------------------|


              ~~~~~~~~~~~~
|------------------|---------------------|
|---------10-------|---------------------|
|-9-7-/11----11----|-(11)--(11)\---------|
|------------------|----------------7-7--|
|------------------|---------------------|
|------------------|---------------------|
|------------------|---------------------|


   ~~~
|--------------|-----------------------|
|--------------|-----------------------|
|--------------|---7-------------------|
|-(7)------9-7h|=9---9-(9)-7------7----|
|--------------|---------------/9---\7-|
|--------------|-----------------------|
|--------------|-----------------------|


|----------------------------|----------------------|
|----------------------------|----------------------|
|----------------------------|----------------------|
|----------------------------|----------------------|
|-(7)p5---7---5-(5)b5.5------|---------------5b5.5--|
|-------7---7-----------7----|-----5--7-(7)---------|
|----------------------------|----------------------|


|-------------------|--------------------------|
|-------------------|--------------------------|
|-------------------|--------------------------|
|-------------------|--------------------------|
|-------------------|--------------------------|
|--7-(7)-5----------|--------------------------|
|----------\5---3b5-|--3b5==(3)-(3)r(3)--3b7===|


                             \1.5
|-------------------------|-------------------|
|-------------------------|-------------------|
|-------------------------|----------------7--|
|-------------------------|------------7s9----|
|-------------------------|-------------------|
|-------------------------|-------------------|
|-(3)r=(3)-0-0-3b5-0-(0)--|-(0)---------------|


   ~~
|-----------|-------------------|-------------------------|
|-10--------|----9p7-(7)------7-|-------------------------|
|-----------|-------------7h9---|-7-------9b10.5-7-9-7b9==|
|-----------|--9----------------|-----9p7-----------------|
|-----------|-------------------|-------------------------|
|-----------|-------------------|-------------------------|
|-----------|-------------------|-------------------------|


|----------------------------------------------|
|----------------------------------------------|
|-(7)r(7)-9b11r(9)s11b13==(11)b15===(11)-(11)r-|
|----------------------------------------------|
|----------------------------------------------|
|----------------------------------------------|
|----------------------------------------------|

[ Tab from: http://www.guitartabs.cc/tabs/d/dream_theater/acid_rain_tab.html ]
|-----------------|-----------------------------------------------|
|-----12b14=======|=(12)-(12)-(12)-(12)--(12)-(12)-(12)-(12)r(12)-|
|-----------------|-----------------------------------------------|
|-x-x-------------|-----------------------------------------------|
|-x-x-------------|-----------------------------------------------|
|-----------------|-----------------------------------------------|
|-----------------|-----------------------------------------------|


|-------------------------------------------|
|-10-12p9-(9)-10p9s7-(7)-9p7s5-7p5s3-5p3s2--|
|-------------------------------------------|
|-------------------------------------------|
|-------------------------------------------|
|-------------------------------------------|
|-------------------------------------------|


  ~                                             ~~~          ~~~
|------------------|--------------------------------|---------------|
|-3---2------------|--------------------------------|---------------|
|-------4-2-----4--|-(4)-2-----4-(4)b6-4-2----------|---------------|
|-----------4-2----|-------4-2-------------4-2-(2)--|-4-4s7-[7]-6-7-|
|------------------|--------------------------------|---------------|
|------------------|--------------------------------|---------------|
|------------------|--------------------------------|---------------|


|-----------------|-------------------------|
|-----------------|-------------------------|
|----7-9-9b10-9-7-|-9-7b9===(7)r(7)-6-----9-|
|-/9--------------|-------------------9-7---|
|-----------------|-------------------------|
|-----------------|-------------------------|
|-----------------|-------------------------|


|------------------------------------------------------|
|------------------------------------------------------|
|-(9)b11r(9)-7-----9-(9)b11r(9)-7-----9-(9)b11r(9)-7---|
|--------------9-7----------------9-7----------------9-|
|------------------------------------------------------|
|------------------------------------------------------|
|------------------------------------------------------|


|--------------------------------------------------------|
|--------------------------------------------------------|
|---9-(9)b11r(9)-7-----9-(9)b11r(9)-7-----9-(9)b11r(9)-7-|
|-7----------------9-7----------------9-7----------------|
|--------------------------------------------------------|
|--------------------------------------------------------|
|--------------------------------------------------------|


|-----------------------------------------------|
|-----10-(10)-----13-(13)------14-(14)-------15-|
|-------------9-7---------11-9---------13-11----|
|-9-7-------------------------------------------|
|-----------------------------------------------|
|-----------------------------------------------|
|-----------------------------------------------|


|------------------------------|----------------|-------------------------|
|-(15)----14-16-16b18==(17)----|-(17)r--22------|-(22)--(22)-19-22b24r====|
|------12----15-15b17==(16)----|-(16)r----------|-------------------------|
|------------------------------|----------------|-------------------------|
|-----------------------(0)----|--(0)-----------|-------------------------|
|------------------------------|----------------|-------------------------|
|------------------------------|----------------|-------------------------|


|------------------------------------------------------------------|
|-(22)-19----19----------------------------------------------------|
|---------22----19-21----19-(19)b21r(19)-(19)b20-------21b23-21-19-|
|---------------------21-------------------------21-19-------------|
|------------------------------------------------------------------|
|------------------------------------------------------------------|
|------------------------------------------------------------------|


|-----------------------------------------------|
|-----------------------------------------------|
|-21b22-21pb22r19-21-21b23-19-21-19b21r(19)-0---|
|-----------------------------------------------|
|-----------------------------------------------|
|-----------------------------------------------|
|---------------------------------------------0-|


                      ~~      ~~
|------------------|--------------------|
|------------------|--------------------|
|------------------|--------------------|
|--------------/11-|-11---12-12---12-12-|
|------------------|--------------------|
|------------------|--------------------|
|-(0)------(0)-----|--------------------|


|-------------------------------14-14-14-14p10-10--|
|-------------------14-14-14p12--------------------|
|-------13-13-13p11--------------------------------|
|-12p11--------------------------------------------|
|--------------------------------------------------|
|--------------------------------------------------|
|--------------------------------------------------|


                                          ~~
|-/17-16-16-16-------------------------|--------------------------------------------------|
|--------------17-17-17-15-15-15-14-14-|-15--(15)-14--------------------------------------|
|--------------------------------------|-------------16-14-------16-(16)b18r(16)-14-------|
|--------------------------------------|-------------------16-14--------------------16-14-|
|--------------------------------------|--------------------------------------------------|
|--------------------------------------|--------------------------------------------------|
|--------------------------------------|--------------------------------------------------|


    ~~~~
|--------------------14-17-17-16-(16)b17r===|
|-----------------15------------------------|
|-----------14-16---------------------------|
|-(14)--/16---------------------------------|
|-------------------------------------------|
|-------------------------------------------|
|-------------------------------------------|


|-(16)----14-17-17-17-17-16-14-19-19-19-19-17-16-21-21-21-21-19-17-|
|------17----------------------------------------------------------|
|------------------------------------------------------------------|
|------------------------------------------------------------------|
|------------------------------------------------------------------|
|------------------------------------------------------------------|
|------------------------------------------------------------------|


|-22-22-22-21-19-22b24===(22)r(22)-19--------------|
|-------------------------------------19-22--------|
|-------------------------------------------21b22--|
|--------------------------------------------------|
|--------------------------------------------------|
|--------------------------------------------------|
|--------------------------------------------------|


|----------19-------19--------------19-------19-------19-|
|-19-22b24----22b24----22b24==(22)r----22b24----22b24----|
|--------------------------------------------------------|
|--------------------------------------------------------|
|--------------------------------------------------------|
|--------------------------------------------------------|
|--------------------------------------------------------|


|-------19--------------19-------19-------19-------19--------|-------19-------19-------19-------19--------------19----|
|-22b24----22b24==(22)r----22b24----22b24----22b24----22b24==|=(22)r----22b24----22b24----22b24----22b24==(22)r----22-|
|------------------------------------------------------------|--------------------------------------------------------|
|------------------------------------------------------------|--------------------------------------------------------|
|------------------------------------------------------------|--------------------------------------------------------|
|------------------------------------------------------------|--------------------------------------------------------|
|------------------------------------------------------------|--------------------------------------------------------|


|-21--------|-24p19-------------17-21p17-------------14-19p14--------------|
|-22--------|-------22-19s18-19----------19-17s15-17----------17p14s12-15--|
|-----------|--------------------------------------------------------------|
|-----------|--------------------------------------------------------------|
|-----------|--------------------------------------------------------------|
|-----------|--------------------------------------------------------------|
|-----------|--------------------------------------------------------------|


|-12-16p12-------10-14p10-------7-12-7-----------------------------|
|----------14s12----------12s10--------10h12-10-7------------------|
|-------------------------------------------------10b11-10p9p7-9p7-|
|------------------------------------------------------------------|
|------------------------------------------------------------------|
|------------------------------------------------------------------|
|------------------------------------------------------------------|


|------------------------------------------------------|
|------------------------------------------------------|
|-----9-(9)b11==(9)r(9)b11-(9)-9pb11r(9)-7-9-7-(7)b9r==|
|-9p7--------------------------------------------------|
|------------------------------------------------------|
|------------------------------------------------------|
|------------------------------------------------------|


                                                Gtrs I, II
                          ~~~~~~~~~~~~~                                 ~
|---------------------------------------------|---------------|--------------|
|--------18h19-18-21s22-(22)b23===(22)-(22)r\-|---------------|--------------|
|-(7)s18--------------------------------------|---------------|--------------|
|---------------------------------------------|---------------|--------------|
|---------------------------------------------|---------------|--------------|
|---------------------------------------------|---------/10-9-|-7-5-7--------|
|---------------------------------------------|-5-7-8-7-------|-------5h7----|


  Gtrs I, II                  Gtr II
                                                       ~~
|----------------|----------|---------------|---------------|
|----------------|----------|---------------|---------------|
|----------------|----------|---------------|---------------|
|----------------|----------|---------------|---------------|
|----------------|----------|----------/9-7-|-5-4-5---------|
|----------------|----------|---------------|---------/7----|
|-5-7-8-7-2h3-2--|-0--------|-5-7-8-7-------|---------------|
|
|                             Gtr I
|                                                      ~~
|----------------|----------|---------------|---------------|
|----------------|----------|---------------|---------------|
|----------------|----------|---------------|---------------|
|----------------|----------|---------------|---------------|
|----------------|----------|---------------|---------------|
|----------------|----------|---------/10-9-|-7-5-7---------|
|----------------|----------|-5-7-8-7-------|-------5h=7----|


  Gtrs I, II
                      PM---|     PM---|     PM|
|-------------||---------------------------------||
|-------------||---------------------------------||
|-------------||o-------------------------------o||
|-------------||---------------------------------||
|-------------||o-2p0--------2p0--------2p0-----o||
|-----------2-||---------------------------------||
|-5-7-8-2-3---||------0-0--0-----0-0--0-----0-0--||


 Keyboard Solo
  Gtr IV
|------------------------------------------|
|------------------------------------------|
|------------------------------------------|
|-----------------------7---7h==9-7h9h==11-|
|-2h4h5-4h5h7-5h7h9-7h9---9----------------|
|------------------------------------------|
|------------------------------------------|
|
| Gtrs I, II
|     PM----|     PM----|         PM--------
|------------------------------------------|
|------------------------------------------|
|------------------------------------------|
|------------------------------------------|
|-2p0---------2p0---------2p==0------------|
|------------------------------------------|
|-----0-0---0-----0-0---0---------0---0----|


|--------------------------------------------------------|
|------------------------------10----10h==12-10h12h14s15-|
|---------------9----9h11-9h11----11---------------------|
|-9h11h12-11h12---12-------------------------------------|
|--------------------------------------------------------|
|--------------------------------------------------------|
|--------------------------------------------------------|
|
|--------------------------------------------------|
|--------------------------------------------------------|
|--------------------------------------------------------|
|--------------------------------------------------------|
|-5--7--9--4--5-7----------------------------------------|
|------------------7-9-10-5--7--9--4----5-----7-----0----|
|--------------------------------------------------------|
|--------------------------------------------------------|


                                            ~~~~
|-----------------------------------------------------|
|-14b15-------(14)b15r(14)-12---(12)------(12)--10h12-|
|-----------------------------------------------------|
|-----------------------------------------------------|
|-----------------------------------------------------|
|-----------------------------------------------------|
|-----------------------------------------------------|
|
|         PM----------|           PM----|        PM|
|-----------------------------------------------------|
|-----------------------------------------------------|
|-----------------------------------------------------|
|-----------------------------------------------------|
|--2p===0-------------------2p0-------------2p0-------|
|-----------------------------------------------------|
|---------0-0-----------0---------0--0--0--------0--0-|


                                         ~~~
|------------------------------------------------|
|------------------------------------------------|
|-9b11====(9)---(9)r-9b11r(9)7-(7)------(7)--9p7-|
|------------------------------------------------|
|------------------------------------------------|
|------------------------------------------------|
|------------------------------------------------|
|
|          PM--------|          PM----|      PM|
|------------------------------------------------|
|------------------------------------------------|
|------------------------------------------------|
|------------------------------------------------|
|-2p====0------------------2p0-----------2p0-----|
|------------------------------------------------|
|----------0--0------0----------0--0--0------0-0-|


                                         ~~~
|------------------------------------------------|
|------------------------------------------------|
|-9b11========(9)r-(9)b11r(9)7-(7)------(7)--9p7-|
|------------------------------------------------|
|------------------------------------------------|
|------------------------------------------------|
|------------------------------------------------|
|
|         PM-------|            PM----|      PM|
|------------------------------------------------|
|------------------------------------------------|
|------------------------------------------------|
|------------------------------------------------|
|-2p====0------------------2p0-----------2p0-----|
|------------------------------------------------|
|---------0-0-------0-----------0--0--0------0-0-|


|-------------------------------------|
|-10b12---------------------(10)------|
|-------------------------------------|
|-------------------------------------|
|-------------------------------------|
|-------------------------------------|
|-------------------------------------|
|
|         PM---|     PM---|       PM|
|-------------------------------------|
|-------------------------------------|
|-------------------------------------|
|-------------------------------------|
|--2p===0--------2p0----------2p0-----|
|-------------------------------------|
|---------0-0--0-----0-0--0-------0-0-|


                                            ~~~~
|------------------------------------------------------|
|-14b15-------(14)b15r(14)-12---(12)------(12)---10h12-|
|------------------------------------------------------|
|------------------------------------------------------|
|------------------------------------------------------|
|------------------------------------------------------|
|------------------------------------------------------|
|
|  PM---------------------------------------------------
|------------------------------------------------------|
|------------------------------------------------------|
|------------------------------------------------------|
|------------------------------------------------------|
|------------------------------------------------------|
|------------------------------------------------------|
|--5----3-0-0-----------0---5-3---0--0--0---5--3--0--0-|


                                          ~~~
|--------------------------------------------------|
|--------------------------------------------------|
|-9b10====(9)r---(9)b10r(9)-7---(7)------(7)---9p7-|
|--------------------------------------------------|
|--------------------------------------------------|
|--------------------------------------------------|
|--------------------------------------------------|
|
|------------------------------------------------|
|--------------------------------------------------|
|--------------------------------------------------|
|--------------------------------------------------|
|--------------------------------------------------|
|--------------------------------------------------|
|--------------------------------------------------|
|-5-----3--0---0---------0--5-3--0--0--0--5--3-0-0-|


                                          ~~~
|--------------------------------------------------|
|--------------------------------------------------|
|-9b10====(9)r---(9)b10r(9)-7---(7)------(7)---9p7-|
|--------------------------------------------------|
|--------------------------------------------------|
|--------------------------------------------------|
|--------------------------------------------------|
|
| PM------------------------------------------------
|--------------------------------------------------|
|--------------------------------------------------|
|--------------------------------------------------|
|--------------------------------------------------|
|--------------------------------------------------|
|--------------------------------------------------|
|-5-----3--0---0---------0--5-3--0--0--0--5--3-0-0-|


  \1/               \6__________________
|--------------------------------------|
|--------------------------------h10---|
|--------------------------------------|
|-9----------------(9)-----------------|
|--------------------------------------|
|--------------------------------------|
|--------------------------------------|
|
|------------------------------------|
|--------------------------------------|
|--------------------------------------|
|--------------------------------------|
|--------------------------------------|
|--------------------------------------|
|--------------------------------------|
|-5---3-0-0--0-5-3--0---0--0-5-3---0-0-|


  /
                      ~~~
|-------------------------------------|
|-------------------------------------|
|-------------------------------------|
|-------------------------------------|
|------------5------------------------|
|-7-(7)----------7---(7)----------5h7-|
|-------------------------------------|
|
|        PM----|      PM----|     PM|
|-------------------------------------|
|-------------------------------------|
|-------------------------------------|
|-------------------------------------|
|----5p2---------5p2----------5p2-----|
|-------------------------------------|
|--------0-0---0------0--0--0-----0-0-|


   T       T      T      T      T       T
|------------------------------------------|
|------------------------------------------|
|------------------------------------------|
|------------------------------------------|
|------------------------------------------|
|-12p10p7-10p7p5-10p7p5-12p7p5-14p10p7-12p=|
|------------------------------------------|
|
|       PM-----|      PM-----|       PM|
|------------------------------------------|
|------------------------------------------|
|------------------------------------------|
|------------------------------------------|
|--5p=2-----------5p2-----------5p=2-------|
|------------------------------------------|
|-------0--0---0------0--0---0-------0--0--|


        T       T       T         T         T         T
|--------------------------------------------------------------|
|--------------------------------------------------------------|
|--------------------------------------------------------------|
|--------------------------------------------------------------|
|--------------------------------------------------------------|
|-10p7-17p10p7-14p10p7-12p10p==7-17p10p==7-14p10p==7-12p10p==7-|
|--------------------------------------------------------------|
|
|       PM-----|        PM-------------|              PM---|
|--------------------------------------------------------------|
|--------------------------------------------------------------|
|--------------------------------------------------------------|
|--------------------------------------------------------------|
|--5p2-------------5p2----------------------5p===2-------------|
|--------------------------------------------------------------|
|-------0--0----0-------0----0---------0--------------0----0---|


|-------------------------------------------------|
|-------------------------------------------------|
|-------------------------------------------------|
|-7h9-------7h9-----7-----------------------------|
|-----------------9---9s7p5h==9p5-----------------|
|---------------------------------7p==5--7---5----|
|-------------------------------------------------|
|
|       PM------|       PM----------|      PM|
|-------------------------------------------------|
|-------------------------------------------------|
|-------------------------------------------------|
|-------------------------------------------------|
|---5p2-------------5p2---------------------------|
|---------------------------------------/7--------|
|-------0-0-----0-------0---0-------0------0-0----|


                         \1/
|-----------------------------------------|
|-----------------------------------------|
|-----------------------------------------|
|---------------7---(7)-(7)---------------|
|-------5-(5)-------------------------5---|
|-7---------------------------7-(7)-------|
|-----------------------------------------|
|
| PM---------------------------------------
|-----------------------------------------|
|-----------------------------------------|
|-----------------------------------------|
|-----------------------------------------|
|-----------------------------------------|
|-----------------------------------------|
|-5-3-0-0-----0-5-3--0---0----0--5--3-0-0-|


  ~
|-------------------------------------|
|------------------------------0h5h10-|
|-------------------------------------|
|-6-----------------------------------|
|-------------9---(9)-----7h12--------|
|---------7-------------7-------------|
|-------------------------------------|
|
|----------------------------------|
|-------------------------------------|
|-------------------------------------|
|-------------------------------------|
|-------------------------------------|
|-------------------------------------|
|-------------------------------------|
|-5-3-0-0---0-5-3--0--0---0--5-3-0--0-|


               \1/
   T                          T                                 T
|------------------------5h9-12p5p0----------------------12h17-19p==17b19==|
|-12p10p==5p0-(0)------5------------3h5p2p0---------12---------------------|
|--------------------6---------------------------14------------------------|
|------------------7--------------------------14---------------------------|
|--------------------------------------------------------------------------|
|--------------------------------------------------------------------------|
|--------------------------------------------------------------------------|
|
|  PM-----------------------------------------------------------------------
|--------------------------------------------------------------------------|
|--------------------------------------------------------------------------|
|--------------------------------------------------------------------------|
|--------------------------------------------------------------------------|
|--------------------------------------------------------------------------|
|--------------------------------------------------------------------------|
|--5----3---0--0-----0---5----3-0---0-------0-----5----3-----0----0--------|


|-(17)---(17)r(17)b18==(17)b19========(17)----------(17)r(17)\--|
|---------------------------------------------------------------|
|---------------------------------------------------------------|
|---------------------------------------------------------------|
|---------------------------------------------------------------|
|---------------------------------------------------------------|
|---------------------------------------------------------------|
|
|--------------------------------------------------------|
|---------------------------------------------------------------|
|---------------------------------------------------------------|
|---------------------------------------------------------------|
|---------------------------------------------------------------|
|---------------------------------------------------------------|
|---------------------------------------------------------------|
|---5--3---0----0---------------0-5-3---0--0--0-5-3---0----0----|


                    ~
|----------------------------------|
|----------------------------------|
|-------6-(6)---7---6----------7h9-|
|-9--------------------------------|
|----------------------------------|
|----------------------------------|
|----------------------------------|
|
|     PM------|     PM---|     PM|
|----------------------------------|
|----------------------------------|
|----------------------------------|
|----------------------------------|
|-2p0-----------2p0--------2p0-----|
|----------------------------------|
|-----0-0-----0-----0-0--0-----0-0-|


                     ~~~~~~~~~~~
|--------------------------------------------|
|--------------7---------------------7h==10--|
|-7-----9------------9------(9)--(9)---------|
|--------------------------------------------|
|--------------------------------------------|
|--------------------------------------------|
|--------------------------------------------|
|
|     PM-----|       PM---|       PM---|
|--------------------------------------------|
|--------------------------------------------|
|--------------------------------------------|
|--------------------------------------------|
|-2p0------------2p0---------2p0-------------|
|--------------------------------------------|
|-----0---0--0-------0-0--0-------0----0-----|


|-----------------7---5h7h==9-7h9h==10-9h10h12-10h12h14-10h12h=|
|-7-----10-(10)------------------------------------------------|
|--------------------------------------------------------------|
|--------------------------------------------------------------|
|--------------------------------------------------------------|
|--------------------------------------------------------------|
|--------------------------------------------------------------|
|
|     PM--------|     PM----------|                PM---|
|--------------------------------------------------------------|
|--------------------------------------------------------------|
|--------------------------------------------------------------|
|--------------------------------------------------------------|
|-2p0-------------2p0------------------2p====0-----------------|
|--------------------------------------------------------------|
|-----0--0------0-----0---0-------0----------------0-----0-----|


|-14-10h12h15-12h14h16-13h15h18-14h16h19-16h18h21-17h19h==22-19h21h==24-22h24h==26-22h24p==21--|
|----------------------------------------------------------------------------------------------|
|----------------------------------------------------------------------------------------------|
|----------------------------------------------------------------------------------------------|
|----------------------------------------------------------------------------------------------|
|----------------------------------------------------------------------------------------------|
|----------------------------------------------------------------------------------------------|
|
|              PM---------------|                  PM--------------|                PM---|
|----------------------------------------------------------------------------------------------|
|----------------------------------------------------------------------------------------------|
|----------------------------------------------------------------------------------------------|
|----------------------------------------------------------------------------------------------|
|--2p====0-----------------------------2p====0---------------------------2p===0----------------|
|----------------------------------------------------------------------------------------------|
|--------------0-----0-----------0-----------------0----0----------0----------------0----0-----|


|-22-------(22)\-------------10-(10)---------|
|----------------------12------------10-12---|
|--------------------------------------------|
|--------------------------------------------|
|--------------------------------------------|
|--------------------------------------------|
|--------------------------------------------|
|
|  PM-----------------------------------------
|--------------------------------------------|
|--------------------------------------------|
|--------------------------------------------|
|--------------------------------------------|
|--------------------------------------------|
|--------------------------------------------|
|--5-3-0-0-------0-5-3--0-0---0---5---3--0-0-|


                          T                                  ~~~~
|---------------10h12h17-22p17p12p10h==12----14p12p10-17---(17)-------|
|-(12)------------------------------------12--------------------------|
|--------9h14---------------------------------------------------------|
|---------------------------------------------------------------------|
|---------------------------------------------------------------------|
|---------------------------------------------------------------------|
|---------------------------------------------------------------------|
|
|-------------------------------------------------------------------|
|---------------------------------------------------------------------|
|---------------------------------------------------------------------|
|---------------------------------------------------------------------|
|---------------------------------------------------------------------|
|---------------------------------------------------------------------|
|---------------------------------------------------------------------|
|---5--3-0----0-----------0-----5----3-----0-----0-------0---5--3-0-0-|


|-(17)\---12p10h==12------------------------------|
|--------------------12s======24------(24)s==10---|
|-------------------------------------------------|
|-------------------------------------------------|
|-------------------------------------------------|
|-------------------------------------------------|
|-------------------------------------------------|
|
|   PM---------------------------------------------
|-------------------------------------------------|
|-------------------------------------------------|
|-------------------------------------------------|
|-------------------------------------------------|
|-------------------------------------------------|
|-------------------------------------------------|
|---5---3--0----0-------0-5-3--0-0--0---5--3--0-0-|


   T                        T
|-10s======22---(22)s==12p5-7s======24p12p==|
|-------------------------------------------|
|-------------------------------------------|
|-------------------------------------------|
|-------------------------------------------|
|-------------------------------------------|
|-------------------------------------------|
|
|--------------------------------------|
|-------------------------------------------|
|-------------------------------------------|
|-------------------------------------------|
|-------------------------------------------|
|-------------------------------------------|
|-------------------------------------------|
|--5-3-0-0----0---5--3--0-0---0-5-3--0--0---|

     T            T         ~~~~
|-7-14p12p10p==7-17-------(17)---------------|
|-----------------------------------10-------|
|--------------------------------------------|
|--------------------------------------------|
|--------------------------------------------|
|--------------------------------------------|
|--------------------------------------------|
|
|       PM----------|       PM----|      PM|
|--------------------------------------------|
|--------------------------------------------|
|--------------------------------------------|
|--------------------------------------------|
|-5p=2----------------5p2------------5p2-----|
|--------------------------------------------|
|-------0----0------0-------0--0--0------0-0-|

    \6________/         /               \1.5/
|--------------------------------------------------|
|-(10)---------------------------------------------|
|-------------7---(7)--(7)---(7)-------------------|
|----------------------------------0---(0)h===11p==|
|--------------------------------------------------|
|--------------------------------------------------|
|--------------------------------------------------|
|
|         PM----|       PM-------|      PM----|
|--------------------------------------------------|
|--------------------------------------------------|
|--------------------------------------------------|
|--------------------------------------------------|
|---5p==2----------5p2-------------5p2-------------|
|--------------------------------------------------|
|---------0-0---0-------0--0-----0------0------0---|

           \1.5_______________\6_____________
|-------------------------------------------|
|-------------------------------------------|
|-------------------------------------------|
|-0-------(0)----------(0)---(0)------------|
|-------------------------------------------|
|-------------------------------------------|
|-------------------------------------------|
|
|     PM---------|      PM--------|     PM|
|-------------------------------------------|
|-------------------------------------------|
|-------------------------------------------|
|-------------------------------------------|
|-5p2--------------5p2--------------5p2-----|
|-------------------------------------------|
|-----0-0--------0------0--0------0-----0-0-|

  /
|-----------------------------------|
|-----------------------------------|
|-----------------------------------|
|-----------------------------------|
|-2--------------(2)h==5p2-(2)------|
|-----------------------------------|
|-----------------------------------|
|
|     PM---|      PM-----|      PM|
|-----------------------------------|
|-----------------------------------|
|-----------------------------------|
|-----------------------------------|
|-5p2--------5p2------------5p2-----|
|-----------------------------------|
|-----0-0--0------0--0---0------0-0-|

                                            ~~~~
|------------------------------------------------------|
|-14b15-------(14)b15r(14)-12---(12)------(12)---10h12-|
|------------------------------------------------------|
|------------------------------------------------------|
|------------------------------------------------------|
|------------------------------------------------------|
|------------------------------------------------------|
|
|  PM---------------------------------------------------
|------------------------------------------------------|
|------------------------------------------------------|
|------------------------------------------------------|
|------------------------------------------------------|
|------------------------------------------------------|
|------------------------------------------------------|
|--5----3-0-0-----------0---5-3---0--0--0---5--3--0--0-|

                                          ~~~
|--------------------------------------------------|
|--------------------------------------------------|
|-9b10====(9)r---(9)b10r(9)-7---(7)------(7)---9p7-|
|--------------------------------------------------|
|--------------------------------------------------|
|--------------------------------------------------|
|--------------------------------------------------|
|
|------------------------------------------------|
|--------------------------------------------------|
|--------------------------------------------------|
|--------------------------------------------------|
|--------------------------------------------------|
|--------------------------------------------------|
|--------------------------------------------------|
|-5-----3--0---0---------0--5-3--0--0--0--5--3-0-0-|
Comments