Dream Child - The Search Chords & Tabs

 

The Search Chords & Tabs

Dream Child Chords & Tabs

Version: 1 Type: Tab 0 ratings
1 star 2 stars 3 stars 4 stars 5 stars
comments

The Search Tab

   
****************************************************************************
*                        DREAM CHILD  -  The search                        *
****************************************************************************
Album : REACHING THE GOLDEN GATES
                                           Transcribed by Dominique LEURQUIN

Here's only the guitar intro
Dominique gives you the beginning. You have to "search" the rest...


Tablature explanation

             p : pulling-off
             h : hammer-on
             ~ : vibrato
             / : slide up
             \ : slide down
           b() : bend until the note in brackets
          ()rb : release bend, from the note in brackets
             T : tapping
            x5 : repeat 5 times the part in [ ]
          a.h. : artificial harmonic
             H : natural harmonic


INTRO

[ Tab from: http://www.guitartabs.cc/tabs/d/dream_child/the_search_tab.html ]
E)-----------------------------------------------------------------------
B)-----------------------------------------------------------------------
G)-4/-6-----------4/-6~----6-------8-------9------11/-13--4-----------4~-
D)-----------------------------------------------------------------------
A)-2/-4--2-2-2-2--2/-4~----4--4-4--6--6-6--7--7-7--9/-11--2--2-2-2-2--2~-
E)-----------------------------------------------------------------------


E)-----------------------------------------------
B)-----------------------------------------------
G)-----------------------------------------4/-6--
D)-----------------------------------------------  ... (search the rest)
A)-4p2p0-----------2p0-----------2p0--0-0--2/-4--
E)--------4-4-4-4-------4-4-4-4------------------


VERSE

E)------------------------------------------------------
B)------------------------------------------------------
G)-12-----------10-----------10------------9~----9---9--
D)-12-----------12-----------10-----------10~---10--10--
A)--0--0-0-0-0---0--0-0-0-0---0--0-0-0-0---0~----0---0--
E)------------------------------------------------------


E)----------------------------5-----------5~--
B)----------------------------6-----------6~--
G)--9-----------9~----9-------5-----------5~--
D)--7-----------7~----7--5----7-----------7~--
A)--5--5-5-5-5--5~----5--5----5--5-5-5-5--5~--
E)--------------------------------------------

That's all !
Comments