Dream Child - Kadesh Battle Chords & Tabs

 

Kadesh Battle Chords & Tabs

Dream Child Chords & Tabs

Version: 1 Type: Tab 0 ratings
1 star 2 stars 3 stars 4 stars 5 stars
comments

Kadesh Battle Tab

   
****************************************************************************
*                      DREAM CHILD  -  Kadesh Battle                       *
****************************************************************************
Album : REACHING THE GOLDEN GATES
                                           Transcribed by Dominique LEURQUIN

Complete tab !


Tablature explanation

             p : pulling-off
             h : hammer-on
             ~ : vibrato
             / : slide up
             \ : slide down
           b() : bend until the note in brackets
          ()rb : release bend, from the note in brackets
             T : tapping
            x5 : repeat 5 times the part in [ ]
          a.h. : artificial harmonic
             H : natural harmonic


INTRO

RIFF 1

E)------------------------------------------------------------------------
B)------------------------------------------------------------------------
G)-7-------7-------7-------7-------7-------7-------7-------7-------7------
D)-5-------5-------5-------5-------5-------5-------5-------5-------3------
A)-3--3-3--3--3-3--3--3-3--3-------3-------3-------3-------3-------3------
E)----------------------------6-6--6--6-6--6--6-6--6--6-6--6--5-5--5--5-5-
   ^  ^ v  ^  ^ v  ^          

E)---------------------------4---------4--7~-
B)---------------------------4---------4--7~-
G)-7-------7-------7---------6---------6--9~-
D)-3-------3-------3---------6---------6--9~-
A)-3-------3-------3---------4---------4--7~-
E)-5--5-5--5--5-5--5--4-4-4--4--0-0-0--4--7~-


E)------------------------------------------------------------
B)------------------------------------------------------------
G)--7-------7-------7-------7-------7-------7-------7-------7-
D)--5-------5-------5-------5-------5-------5-------5-------5-
A)--3--3-3--3--3-3--3--3-3--3-------3-------3-------3-------3-
E)-----------------------------6-6--6--6-6--6--6-6--6--6-6--6-


E)---------------------------------------------------
B)---------------------------------------------------
G)----7-------7-------7-------7----------------------
D)----5-------5-------5-------5----------------------
A)-3--6--6-6--6--6-6--6--6-6--6---5-6-----------5-6~-
E)--------------------------------3-4--0-0-0-0--3-4~-

RIFF 2
                                                             \ 
E)--------------------------------------------------------    |
B)--------------------------------------------------------    |
G)--------------------------------------------------------    |
D)--------------------------------------------------------    |
A)--------------------------------------------------------    |
E)-5-6-5--0-0--3--0-0--5~---0--5-6-5--0-0--3--0-0--5-3--0-    |
                                                              |>  x2
                                                              |
E)--------------------------------------------                |
B)--------------------------------------------                |
G)--------------------------------------------                |
D)--------------------------------------------                |
A)----------------------------6---5---3-------                |
E)-5-6-5--0-0--3--0-0--5~---6---6---5---5-4-3-                |
                                                             /

VERSE

E)-------------------------------------------------------
B)-------------------------------------------------------
G)-7-----------9-------------------7----------12------10-
D)-9----------10-------------------9----------14------12-
A)-0--0-0-0-0--0--0-0-0-0-0-0-0-0--0--0-0-0-0--0--0-0--0-
E)-------------------------------------------------------


E)-------------------------------------------
B)-------------------------------------------
G)-------9--7------------9-------------------
D)------10--9-----------10-------------------
A)-0-0---0--0--0-0-0-0---0--0-0-0-0--0-0-0-0-
E)-------------------------------------------

            1st ending                    2nd ending
E)------------------------------|---------------------------|
B)------------------------------|---------------------------|
G)--14--16-------17-------16----|--19--17-------17-------16-|
D)--15--15-------15-------15----|--19--19-------19-------17-|
A)--0----0--0-0---0--0-0---0--0-|---0---0--0-0---0--0-0---0-|
E)------------------------------|---------------------------|


ARPEGES

E)-----------------------------------------------------------------
B)-3--3------3-------3--------3----3--3------3----/6--6------6-----
G)-2----2------0-------0--------0--2----2------0--------0------0---
D)-0---------------------0---------0-------------------------------
A)--------3------2~--------1--------------3-------/6------6------6-
E)-----------------------------------------------------------------

                                x8   x8
E)-------------------------------------
B)-3--3------3-------3-----------------
G)-2----2------0-------0---------------
D)-0---------------------0-------------
A)--------3------2~--------1--[3]--[2]-
E)----------------------------[1]--[0]-


VERSE

                                                         h h h  h h h
E)---------------------------------------------------------------------
B)---------------------------------------------------------------------
G)---------------------------------------------------------------------
D)---------------------------------------------------------------------  x2
A)---------------------------------------------------------------------
E)-5--1-1-1-1-1-1-1--5--2-2-2-2-2-2-2--5--3-3-3-3-3-3-3--4-4-4--5-5-5~-
                                                    ^ v ^  ^ v ^


E)--------------------------------------------------------------------
B)--------------------------------------------------------------------
G)----2----------4/5\4-2-----2----------------------2-----------4/5\4-
D)-4--2----------4/5\4-2--4--2-----------2--2/3--4--2-----------4/5\4-  x2
A)-4----2-2-2-2-----------4--------------2--2/3--4-----2-2-2-2--------
E)------------------------------0-0-0-0-------------------------------

        1st ending        2nd ending
E)-------------------|-------------------|
B)-------------------|-------------------|
G)-------------------|-------------------|
D)----9-9----9-9-----|-----9-9-----9-8~--|
A)----7-7----7-7-----|-----7-7-----7-7~--|
E)-0-------0------0--|--0-------0--------|


RHYTMIQUE SOLO
[ Tab from: http://www.guitartabs.cc/tabs/d/dream_child/kadesh_battle_tab.html ]
E)--------------------------------------------------------------
B)--------------------------------------------------------------
G)--------------------------------------------------------------
D)----2-----------2-------2-----------------------------------2-
A)----2-----------2-------2-----------------------------------2-
E)-2~----2-2-2-2-----2-2-----2-2-2-2-2-2-2-2-2-2-2-2--0-1-2~----
   ^  ^  ^ v ^ v  ^  ^ v  ^  ^ ^ ^ ^ ^ ^ ^ ^ ^ ^ ^ ^  ^ ^ ^


E)-------------------------------
B)-------------------------------
G)-------------------------------
D)-------------------2------2----
A)-----------------4------2------
E)-2-2-2-2--2-4-5-------4------4-


GUITAR SOLO

            h   h   h   
E)--------------------------------------
B)--------------------------------------
G)-4-b(6)~-(6)-(6)-(6)-(6)rb-4p2------2-
D)--------------------------------4-2---
A)--------------------------------------
E)--------------------------------------


                                  h h h h h h h
E)-------------------------------------------------17----21~--21p17-
B)----------------------------------------------17----17------------
G)--------------------------------------------9---------------------
D)-2-4~--4p2--------------------------------7-----------------------
A)------------4-3-2-------------------5-7-9-------------------------
E)-------------------4-b(5)--0\---5-7-------------------------------


E)-21-b(22)rb-21p17--21--17h21p17\-
B)---------------------------------
G)---------------------------------
D)---------------------------------
A)---------------------------------
E)---------------------------------


E)--------------------------16-----------------------21-16-19p16-------
B)---9---11---12---14---16------16--19-b(21)rb-19p16-------------19p16-
G)-(13)-(15)-(16)-(18)-(20)--------------------------------------------
D)---------------------------------------------------------------------
A)---------------------------------------------------------------------
E)---------------------------------------------------------------------


E)-----------------------------------------------------------
B)-19p16-----------------------------------------------------
G)-------19-18-16----18-------18-------18-------18-------16~-
D)----------------18----18-18----18-18----18-18----18-18-----
A)-----------------------------------------------------------
E)-----------------------------------------------------------

              x4     faster
E)-[-14-------]----14-------------------------------
B)-[-14-b(16)-]----14-b(16)--14-b(16)rb-14p12-------
G)--------------------------------------------13-13-
D)--------------------------------------------------
A)--------------------------------------------------
E)--------------------------------------------------


E)-12-11-9--------------------------------------
B)----------12-11-9-----------------------------
G)-------------------9-8-6----------------------
D)--------------------------9-8-6---------------
A)---------------------------------7-6-4--------
E)----------------------------------------7-6-4-

                     h h h h h h h     h        h h h h h h h
E)------------------------------------------------------------
B)------------------------------------------------------------
G)-------------------------------5--------------------------9-
D)---------------------------4-5--------------------------7---
A)-  x14  ---------------4-5---------   x14   ------5-7-9-----
E)-[0]-----------5-5-4-5--------------[0]-------5-7-----------
 moved harmonic


E)-----------------------------------------------------------------
B)-----------------------------------------------------------------
G)-----------------------------------------------------------------
D)-14\-13-----------13\-10-----------10\-9-----------9\-7----------
A)-12\-11-----------11\--8------------8\-7-----------7\-5----------
E)---------0-0-0-0----------0-0-0-0---------0-0-0-0--------0-0-0-0-


E)----------------------------------------------------------------
B)----------------------------------------------------------------
G)----------------------------------------------------------------
D)-4/-5\-4-------14\-13-----------13\-10-----------9/-10----------
A)-2/-3\-2-------12\-11-----------11\--8-----------7/--8----------
E)----------0-0----------0-0-0-0----------0-0-0-0---------0-0-0-0-


E)------------------------------
B)------------------------------
G)------------------------------
D)-19\-17-----------16/-17-\16~-
A)-17\-15-----------14/-15-\14~-
E)---------0-0-0-0--------------


  violing effect ...............
E)----------------------------------------------------------------
B)--------------------------------/-17~--17-17~--17-18-21-b(22)rb-
G)-------------------------14-13~---------------------------------
D)----7-6~-----------10-9~----------------------------------------
A)-7~------8-7~---7~----------------------------------------------
E)----------------------------------------------------------------


E)----------------------------------------------------------------------
B)-21p18p17\--/17-18\--/18p17\--/17~------------------------------------
G)----------\/-------\/-------\/-----17p16\--/16~--21p16\--/16h17\--/17-
D)-----------------------------------------\/------------\/-------\/----
A)----------------------------------------------------------------------
E)----------------------------------------------------------------------

                              
E)----------------------------
B)-p16\-14\--/14~ \13-13\-7~--
G)---------\/-----------------
D)----------------------------
A)----------------------------
E)----------------------------

         x3                x3
E)--[-5-7-]---8--7----[-5-7-]--------
B)--[-5-7-]---8--9----[-5-7-]--10--9-
G)--[-7-9-]--10--9----[-7-9-]---9--8-
D)--[-7-9-]--10--7----[-7-9-]---7--6-   x2
A)--[-5-7-]---8--7----[-5-7-]---7--6-
E)-----------------------------------


Repeat RIFF 1 INTRO


E)---------------------------------------------------
B)---------------------------------------------------
G)-----------------------------------5p3-------------
D)----------------------5-----------------5-4-3------
A)-[-5-6-]--------5h6h8-----[-5-6-]--------------6-3-
E)-[-3-4-]--4h6h8-----------[-3-4-]------------------
         x3                       x3
Comments