Dream Child - Eternal Flight Chords & Tabs

 

Eternal Flight Chords & Tabs

Dream Child Chords & Tabs

Version: 1 Type: Tab 0 ratings
1 star 2 stars 3 stars 4 stars 5 stars
comments

Eternal Flight Tab

   
****************************************************************************
*                        DREAM CHILD  -  Eternal Flight                    *
****************************************************************************
Album : TORN BETWEEN TWO WORLDS
                                           Transcribed by Dominique LEURQUIN

Tablature explanation

             p : pulling-off
             h : hammer-on
             ~ : vibrato
             / : slide up
             \ : slide down
           b() : bend until the note in brackets
          ()rb : release bend, from the note in brackets
             T : tapping
            x5 : repeat 5 times the part in [ ]
          a.h. : artificial harmonic
             H : natural harmonic
             ^ : plec stroke down
             v : plec stroke up

INTRO 


E)-----------------------------------------------------------------
B)-----------------------------------------------------------------
G)-----------------------------------------------------------------
D)-6--------------6p9-------6p9--9----------------8---9--9--8------
A)-4-4-4-4-4-4-4--6----6-6--6----7----------------7---7--7--7------
E)----------------------------------0-0-0--0-0-0--0-0-0--0--0------
   ^ ^ v ^ v ^ v  ^    ^ v  ^    v  ^ v ^  v ^ v  ^ ^ v  ^  v

E)-----------------------------------------------------------------
B)-----------------------------------------------------------------
G)-----------------------------------------------------------------
D)-6--------------6p9-------6p9------------------------------------
A)-4-4-4-4-4-4-4--6----6-6--6--------4/-6------6p7-----------------
E)--------------------------------2---------4----------------------


VERSE  (x4)

                  x3                        x3 
E)--------------[0]------------------------------------------------
B)--------------[0]-----------------------[5]----------------------
G)--------------[2]-----------------------[5]----------------------
D)--------------[2]-----------------------[5]----------------------
A)--------------[0]-----------------------[3]----------------------
E)-0/-2-2-2-2-2-----2\-0----0/-1-1-1-1-1--[1]--1\-0----------------


                  x3 
E)--------------[0]------------------------------------------------
B)--------------[0]--------------------5--5------------7--7--------
G)--------------[2]--------------------5--5------------7--7--------
D)--------------[2]--------------------5--5------------7--7--------
A)--------------[0]--------------------3--3------------5--5--------
E)-0/-2-2-2-2-2-----2\-0----0/-1-1-1---1--1---3-3-3-3--3--3--------


PRE-CHORUS
                                  x4
E)--------------------------------]---
B)--------------------------------]---
G)-6--9--8--4----6--9--8--[4--4--x]---
D)-6--7--7--4----6--7--7--[4--4--x]---
A)-4--0--0--2----4--0--0--[2--2--x]---
E)------------------------------------


E)-----------------------------------------------------------------
B)-----------------------------------------------------------------
G)-----------------------------------------------------------------
D)-4---------------------------------------------------------------
A)-4-------------------------------7-------------------------------
E)-2-2-2-2-2-2-2-2-2-2-2-2-2-2-2---4-4-4-4-4-4-4-4-4-4-4-4-4-4-4---
     Pm ........................     Pm ........................

                                     1st ending             2nd ending
E)-------------------------------|------------------------|------------------
B)-------------------------------|------------------------|------------------
G)-------------------------------|------------------------|------------------
D)-7-----------------------------|----------------7-------|------------------
A)-7-----------------------------|-7--------------7-------|-9-------------9\-
E)-5-5-5-5-5-5-5-5-5-5-5-5-5-5-5-|-4-4-4-4-4-4-4--5-5-4-4-|-7-7-7-7-7-7-7-7\-
     Pm ........................


VERSE (x4)

PRE-CHORUS

once with 1st ending, once with following ending :

E)---------------------
B)---------------------
G)---------------------
D)---------------------
A)---9-9------7--9\-7--
E)---7-7--5-5-5--7\-5--


CHORUS = Riff Intro x 2

(ending of the 2nd Riff)
E)--------------------------
B)--------------------------
G)--------------------------
D)-4-4-----2---------4--6---
A)-2-2-2-2-0-0-0--0--2--4---
E)--------------------------


1st GUITAR SOLO

E)-------------------------------------------------------------
B)-------------------------------------------------------------
G)--------13-----14-14-13h14p13----13\-11----11\-9--9h11p9\-8--
D)-11/-13----14------------------------------------------------
A)------------------------------14--------12-------------------
E)-------------------------------------------------------------

                     a.h.
E)----------------------------------------------------------------
B)----------------------------------------------------------------
G)-8h9p8\-6-6h8p6\-4--4~----------13-----16-b(18)rb-16-14\-13/-14-
D)-------------------------11/-13----14---------------------------
A)----------------------------------------------------------------
E)----------------------------------------------------------------


E)--------------------------------------------------
B)-14-16-17-16--17/-19-b(21)-(21)-(21)rb-19p17h19~--
G)--------------------------------------------------
D)--------------------------------------------------
A)--------------------------------------------------
E)--------------------------------------------------

[ Tab from: http://www.guitartabs.cc/tabs/d/dream_child/eternal_flight_tab.html ]
BRIDGE
                                                                      \
E)-------------------------------------------------------------------- |
B)-------------------------------------------------------------------- |
G)-------------------------------------------------------------------- |
D)-------------------------------------------------------------------- |
A)----------------------------------------------------3-----2-----2-3- |
E)-0/-2-2-2-2-2-2-2--5-5-5--4-4-4--5p0-1--1-1-1-1-1-1---1-1---1-1----- |
                                                                       |
                                          a.h.      a.h.               |> x2
E)-----------------------------------------------------------------    |
B)-----------------------------------------------------------------    |
G)-----------------------------------------------------------------    |
D)-----------------------------------------------------------------    |
A)---------------------------------------5-4~------7-6~------------    |
E)-2-2-2-2-2-2-2-2--5-5-5--4-4-4--5p0--3------3/-5-----------------    |
                                                                      /

                                                                      \
E)-------------------------------------------------------------------- |
B)-------------------------------------------------------------------- |
G)-------------------------------------------------------------------- |
D)----------------------------------------------------3-----2-----2-3- |
A)-0/-2-2-2-2-2-2-2--5-5-5--4-4-4--5p0-1--1-1-1-1-1-1---1-1---1-1----- |
E)-------------------------------------------------------------------- |
                                                                       |
                                          a.h.      a.h.               |> x2
                                                                       |
E)-----------------------------------------------------------------    |
B)-----------------------------------------------------------------    |
G)-----------------------------------------------------------------    |
D)---------------------------------------5-4~------7-6~------------    |
A)-2-2-2-2-2-2-2-2--5-5-5--4-4-4--5p0--3------3/-5-----------------    |
E)-----------------------------------------------------------------
/                                                                      /


PRE-CHORUS

once with 1st ending, once with ending before chorus

CHORUS (=Riff Intro x2)


2nd BRIDGE

E)----------------------------------------------------
B)----------------------------------------------------
G)----------------------------------------------------
D)-11---------11-----------------11---------11--------
A)--9-9-9-9-9--9-9-9-9-9-9-9-9-9--9-9-9-9-9--9----7---
E)----------------------------------------------4---4-

   1st ending
E)---------------------------------------
B)---------------------------------------
G)---------------------------------------
D)-11---------11---------11--9--9--------
A)--9-9-9-9-9--9-9-9-9-9--9--7--7----7---
E)---------------------------------4---4-

   2nd ending
E)------------------------------------------
B)------------------------------------------
G)-----9------6------7------9------6------7-
D)---7------7------5------7------7------5---
A)-5------4------3------5------4------3-----
E)------------------------------------------


GUITAR SOLO

E)------------------------------------------------------------------------
B)------------------------------------------------------------------------
G)------------------------------------------------------------------------
D)------6---7-7-6h7p6-----6\-4-----4\-2-------------------------------7p6-
A)-4/-6---7------------------------------0--2-b(4)rb-2-2-4-4/-6-6-7-9-----
E)---------------------7--------5-----------------------------------------


E)------------------------------------------------------------------------
B)------------------------------------------------------------------------
G)--------------------------------------------------------10p9-------9----
D)-----------6h7p6-------------------6/-8h9p8-----8/-9-11-------11-9---9--
A)-9-7-6-7-9-------9-(7-6-7-9)-6-7-9-----------11-------------------------
E)------------------------------------------------------------------------


E)--------------------------------------
B)--------------------------------------
G)--------------------------------------
D)-11-b(13)-(13)rb-11p9\-8-9-9/-11\-9~--
A)--------------------------------------
E)--------------------------------------


E)---12p9---11p9---14p9---12p9---11h12p11-9---  \
B)-9------9------9------9------9------------9-   |
G)--------------------------------------------   |>  x2
D)--------------------------------------------   |
A)--------------------------------------------   |
E)--------------------------------------------  /


E)----16p12-----14p12-----17p12-----16p12-----14p12-----  \
B)-12-------12--------12--------12--------12--------12--   |
G)------------------------------------------------------   |> x2
D)------------------------------------------------------   |
A)------------------------------------------------------   |
E)------------------------------------------------------  /


E)------------------------------------------------------  \
B)----16p14-----17p14-----19p14-----17p14-----16p14-----   |
G)-14-------14--------14--------14--------14--------14--   |> x2
D)------------------------------------------------------   |
A)------------------------------------------------------   |
E)------------------------------------------------------  /


E)------------------------------------------------------  \
B)----17p16-----19p16-----21p16-----19p16-----17p16-----   |
G)-16-------16--------16--------16--------16--------16--   |> x2
D)------------------------------------------------------   |
A)------------------------------------------------------   |
E)------------------------------------------------------  /

    T  T                T  T     x8     T  T                   T  T     x8 
E)-------------------------------|--------------------------------------|
B)-14-14--10-9-7-9-10-(14-14)----|-----17-17--14-12-10-12-14-(17-17)----|
G)-------------------------------|--------------------------------------|
D)-------------------------------|--------------------------------------|
A)-------------------------------|--------------------------------------|
E)-------------------------------|--------------------------------------|

    T  T                   T  T     x8    T  T                    x4
E)-17-17--14-12-11-12-14-(17-17)----|----19-19--16-14-12-14-16----|
B)----------------------------------|-----------------------------|
G)----------------------------------|-----------------------------|
D)----------------------------------|-----------------------------|
A)----------------------------------|-----------------------------|
E)----------------------------------|-----------------------------|

    T  T                      x4
E)-20-20--16-14-14-12-14-16---|
B)----------------------------|
G)----------------------------|
D)----------------------------|
A)----------------------------|
E)----------------------------|


Sorry, the end of the solo is not even available...


CHORUS (Riff Intro x3)
Comments