Draw - Today Chords & Tabs

 

Today Chords & Tabs

Draw Chords & Tabs

Version: 1 Type: Tab 0 ratings
1 star 2 stars 3 stars 4 stars 5 stars
comments

Today Tab

   
miranda.harding@btopenworld.com
pixiedamage@hotmail.com

Draw - Today
Tabbed by Miranda Harding (address comments, complaints, letter bombs to either
of the above addresses) First song off the album, i've already submitted Siver
Screen and hope to work my way through the entire album...

Intro (Guitar 1):
Not completely accurate but just mess around with this general pattern...
E|--12-----12-12-----12--12-----12----12h14-14-12-------14-------|
B|-----14--------14---------14-----14-------------14-14----14-14-|
G|---------------------------------------------------------------|
D|---------------------------------------------------------------|
A|---------------------------------------------------------------|
e|---------------------------------------------------------------|

E|-17-16-14-12--|
B|--------------|
G|--------------|
D|--------------|
A|--------------|
e|--------------|

Verse (Guitar 2):
A              D
She said words don't matter
A                     D
Take what you got and go
A              D
Instead it's a state that matters
A                       D
When instincts create control

Pre-Chorus (Guitar 1/Guitar 2 plays verse chords):
E|--------------------------------------------------------|
B|--------------------------------------------------------|
G|-----------------------------------------------7-7-7-7--|
D|--9---9---9---9---9---9---9---7---7---7---7----7-7-7-7--|
A|----7---7---7---7---7---7---7---5---5---5---5--5-5-5-5--|
e|--------------------------------------------------------|
[ Tab from: http://www.guitartabs.cc/tabs/d/draw/today_tab.html ]
Chorus:
A     E     D
Today, what a day
A    E   D
Today today
A            E           D
When you stop dead all that matters
A    E   D 
Today today

Guitar 2 (plays after chorus and through verse 2):
E|--7-------7-------5-------7------|
B|----5---5---5---5---5---5---5----|
G|------6-------6-------6-------6--|
D|---------------------------------|
A|---------------------------------|
e|---------------------------------|

Verse 2 (Guitar 2):
A             D
If respite represented pleasure
A                D
Abrate from the fate designed
A              D
Then it feels like we've been made to measure
A               D
Restrictions on using time

Pre-Chorus (Guitar 1/Guitar 2 plays verse chords):
E|--------------------------------------------------------|
B|--------------------------------------------------------|
G|-----------------------------------------------7-7-7-7--|
D|--9---9---9---9---9---9---9---7---7---7---7----7-7-7-7--|
A|----7---7---7---7---7---7---7---5---5---5---5--5-5-5-5--|
e|--------------------------------------------------------|

Chorus:
A     E     D
Today, what a day
A    E   D
Today today
A          A  E           D
When you stop dead all that matters
A    E   D 
Today today

Bridge:
B5   E5
She said 
B5     E5
You're shaking
B5    D5    E5
Just let it all go

Solo chords:
A5  E5  D5

Chorus:
A     E     D
Today, what a day
A    E   D
Today today
A          E           D
When you stop dead all that matters
A    E   D 
Today today

Outro chords:
A E D (x4)
Comments