Draw - Incidently Chords & Tabs

 

Incidently Chords & Tabs

Draw Chords & Tabs

Version: 1 Type: Tab 0 ratings
1 star 2 stars 3 stars 4 stars 5 stars
comments

Incidently Tab

   
Song: Draw - Incidently
Tabbed By: Erd
Contact: astra_triple888@hotmail.com

I've only tabbed the intro for now, will tab rest later...


INTRO: (x2)

E|-----------------------------------------------------------------
B|-----------------------------------------------------------------
G|-----------------------------------------------------------------
D|-----------------------------------------------------------------
A|-----------------------------------------------------------------
e|-3-3-3-3-3-3-3-3-5-5-5-5-7-7-7-7-3-3-3-3-3-3-3-3-5-5-5-5-7-7-7-7-

E|-----------------------------------------------------------------
B|-----------------------------------------------------------------
G|-----------------------------------------------------------------
D|-----5-------5-------7-----9-------5-------5-------7-----9-------
A|---5---5---5---5---7-----9-------5---5---5---5---7-----9---------
e|-3-------3-------5-----7-------3-------3-------5-----7-----------

[ Tab from: http://www.guitartabs.cc/tabs/d/draw/incidently_tab.html ]
Lyrics:
He, he couldnt believe himself,
He wouldn't believe anyone else,
Trying his best to please, 
Incidently so was she,

He went on the wrong way,
Just to discover the long way home,
Lay on his back to long,
Incidently she was gone,

He said look, dear, shut up,
Your acting like them again, god,
Just give it up, I swear,
Your acting like them,
You swallow me pride,
That you would find,
That i'am living this time,

Now he, lay on his back to think,
He lay on his back for everything,
Lay on his back too long,
Incidently, she was gone,

And he said look, dear, shut up, 
Your acting like them again, god,
Just give it up I swear,
Your acting like them,
You swallow me pride,
That you would find,
That I'am living this time,
You swallow me pride,
That you would find,
That I'am living this time,


Oh no now dear, shut up, 
Your acting like them again, god,
Just give it up I swear,
Your acting like them,
You swallow me pride,
That you would find,
That I'am living this time,
You swallow me pride,
That you would find,
That I'am living this time,
You swallow me pride,
That you would find,
That I'am living this time.
Comments