Dramarama - Anything Anything Chords & Tabs

 

Anything Anything Chords & Tabs

Dramarama Chords & Tabs

Version: 1 Type: Tab 0 ratings
1 star 2 stars 3 stars 4 stars 5 stars
comments

Anything Anything Tab

DRAMARAMA
ANYTHNG,ANYTHING

intro/verse
------------------------------------
------------------------------------
-------------------5-5-5-5--7-7-7-7-
-2-2-2-2--5-5-5-5--5-5-5-5--7-7-7-7-
-2-2-2-2--5-5-5-5--3-3-3-3--5-5-5-5-
-0-0-0-0--3-3-3-3-------------------

chorus
3-2-3-2-3-2-3-5---------------------
------------------------------------
------------------------------------
------------------------------------
------------------------------------
------------------------------------

Okay, what is it tonight?
Please just tell me what the hell is wrong!
Do you wanna eat?
Do you wanna sleep?
Do you wanna drown?

Just settle down, settle down, settle down!

I'll give you candy, give you diamonds, give you pills
give you anything you want--
hundred-dollar bills
I'll even let you watch the shows you wanna see
just marry me marry me marry me!
[ Tab from: http://www.guitartabs.cc/tabs/d/dramarama/anything_anything_tab.html ]
I'm so sick of you tonight
You never stay awake when I get home
Is something wrong with me?
Is something wrong with you?
I really wish I knew wish I knew wish I knew!

I'll give you candy, give you diamonds, give you pills
I'll give you anything you want--
hundred-dollar bills
I'll even let you watch the shows you wanna see
Because you marry me marry me marry me!
Marry me marry me marry me!

I was young, I learned a game
And love and happiness were the same
Now I'm older and I don't play--
I found out the hardest way.

I got wasted she got mad
Called me names and she called her dad
He got crazy and I did too
Wondered what I did to you.

I gave you candy, gave you diamonds, gave you pills
Gave you anything you want--
Hundred-dollar bills!
I even let you hear the songs I want to sing
I'll give you anything anything anything
I'll give you anything anything anything
I'll give you anything anything anything
anything
anything 
anything
Comments