Dramarama - Anything Anything Chords & Tabs

 

Anything Anything Chords & Tabs

Dramarama Chords & Tabs

Version: 1 Type: Bass Tab

Anything Anything Bass Tab

G|---------------------------------------------------------------------------|
D|-------------2-2-2-2-2-----------------------------------------------------|
A|--4-4-4-4-4-------------0-0-0-0-0--2-2-2-2-2-------------------------------|
E|---------------------------------------------------------------------------|

G|---------------------------------------------------------------------------|
D|-------------2-2-2-2-2-----------------------------------------------------|
A|--4-4-4-4-4-------------0-0-0-0-0--2-2-2-2-2-------------------------------|
E|---------------------------------------------------------------------------|
[ Tab from: http://www.guitartabs.cc/tabs/d/dramarama/anything_anything_btab.html ]
G|---------------------------------------------------------------------------|
D|-------------2-2-2-2-2-----------------------------------------------------|
A|--4-4-4-4-4-------------0-0-0-0-0--2-2-2-2-2-------------------------------|
E|---------------------------------------------------------------------------|

G|---------------------------------------------------------------------------|
D|-------------2-2-2-2-2-----------------------------------------------------|
A|--4-4-4-4-4-------------0-0-0-0-0--2-2-2-2-2-------------------------------|
E|---------------------------------------------------------------------------|
[ Tab from: http://www.guitartabs.cc/tabs/d/dramarama/anything_anything_btab.html ]
G|---------------------------------------------------------------------------|
D|-------------2-2-2-2-2-----------------------------------------------------|
A|--4-4-4-4-4-------------0-0-0-0-0--2-2-2-2-2-------------------------------|
E|---------------------------------------------------------------------------|



its repeated though the whole song