Drama - Feed It To The Dogs Chords & Tabs

 

Feed It To The Dogs Chords & Tabs

Drama Chords & Tabs

Version: 1 Type: Tab 0 ratings
1 star 2 stars 3 stars 4 stars 5 stars
comments

Feed It To The Dogs Tab

   
===============================================================================
                        The Drama - Feed It To The Dogs
===============================================================================
Tabbed by: Misanthropic & jahu
Email: volken@wp.pl

Tuning: Drop D (DADGBE)

Intro (repeat 4x)

E|---------------------------------|
B|---------------------------------|
G|---------------------------------|
D|-0---0-0-8-8-8-8-0-0-0-0-7-7-7-7-|
A|-0---0-0-x-x-x-x-0-0-0-0-x-x-x-x-|
D|-0---0-0-8-8-8-8-0-0-0-0-7-7-7-7-|

Verse (repeat 12x)

Note: verse is mostly palm-muted... listen to song to get it

E|---------------------------------|
B|---------------------------------|
G|---------------------------------|
D|---------------------------------|
A|---------------------------------|
D|-0-0-0-0-8-8-8-8-0-0-0-0-7-7-7-7-|

Chorus

repeat this 4x:

E|---------------------------------|
B|---------------------------------|
G|---------------------------------|
D|-0---0---0---0---8---8---8---8---|
A|-0---0---0---0/8-8---8---8---8---|
D|-0---0---0---0/8-8---8---8---8---|

and then:

E|---------------------------------|
B|---------------------------------|
G|---------------------------------|
D|-7-7-7-7-7-7-7-7-7-7-7-7-7-7-7-7-|
A|-7-7-7-7-7-7-7-7-7-7-7-7-7-7-7-7-|
D|-7-7-7-7-7-7-7-7-7-7-7-7-7-7-7-7-|

Pre-verse (repeat 2x)

E|---------------------------------|
B|---------------------------------|
G|---------------------------------|
D|-0---0-0-8-8-8-8-0-0-0-0-7-7-7-7-|
A|-0---0-0-x-x-x-x-0-0-0-0-x-x-x-x-|
D|-0---0-0-8-8-8-8-0-0-0-0-7-7-7-7-|

Verse (repeat 6x)

E|---------------------------------|
B|---------------------------------|
G|---------------------------------|
D|---------------------------------|
A|---------------------------------|
D|-0-0-0-0-8-8-8-8-0-0-0-0-7-7-7-7-|
[ Tab from: http://www.guitartabs.cc/tabs/d/drama/feed_it_to_the_dogs_tab.html ]
Chorus

repeat this 4x:

E|---------------------------------|
B|---------------------------------|
G|---------------------------------|
D|-0---0---0---0---8---8---8---8---|
A|-0---0---0---0/8-8---8---8---8---|
D|-0---0---0---0/8-8---8---8---8---|

and then:

E|---------------------------------|
B|---------------------------------|
G|---------------------------------|
D|-7-7-7-7-7-7-7-7-7-7-7-7-7-7-7-7-|
A|-7-7-7-7-7-7-7-7-7-7-7-7-7-7-7-7-|
D|-7-7-7-7-7-7-7-7-7-7-7-7-7-7-7-7-|

Interlude

repeat this 3x:

E|---------------------------------|
B|-6-6-6-6-6-6-5-5-8-8-8-8-8-8-5-5-|
G|-x-x-x-x-x-x-x-x-x-x-x-x-x-x-x-x-|
D|-3-3-3-3-3-3-2-2-5-5-5-5-5-5-2-2-|
A|---------------------------------|
D|---------------------------------|

and then:

E|---------------------------------|
B|-10101010101010101515151515151515|
G|-x-x-x-x-x-x-x-x-x-x-x-x-x-x-x-x-|
D|-7-7-7-7-7-7-7-7-1212121212121212|
A|---------------------------------|
D|---------------------------------|

Chorus

repeat this 7x:

E|---------------------------------|
B|---------------------------------|
G|---------------------------------|
D|-0---0---0---0---8---8---8---8---|
A|-0---0---0---0/8-8---8---8---8---|
D|-0---0---0---0/8-8---8---8---8---|

and then:

E|---------------------------------|
B|---------------------------------|
G|---------------------------------|
D|-7-7-7-7-7-7-7-7-7-7-7-7-7-7-7-7-|
A|-7-7-7-7-7-7-7-7-7-7-7-7-7-7-7-7-|
D|-7-7-7-7-7-7-7-7-7-7-7-7-7-7-7-7-|

End

E|---------------------------------|
B|---------------------------------|
G|---------------------------------|
D|-0-------------------------------|
A|-0-------------------------------|
D|-0-------------------------------|

===============================================================================
Comments