Drake Nick - Things Behind The Sun Chords & Tabs

 

Things Behind The Sun Chords & Tabs

Drake Nick Chords & Tabs

Version: 2 Type: Tab 0 ratings
1 star 2 stars 3 stars 4 stars 5 stars
comments

Things Behind The Sun Tab

   
#----------------------------------PLEASE NOTE---------------------------------#
#This file is the author's own work and represents their interpretation of the #
#song. You may only use this file for private study, scholarship, or research. #
#------------------------------------------------------------------------------##
From: Mike 

Things behind the sun - Nick Drake
Album - Pink moon

I think this version of this song is more accurate than the one 
recently posted -- 

Altered Tuning: DGDDAD
Capo 6th fret.

Intro:-                 

D---------|--------|--------|--------|
A-----0--0|----0--0|----0--0|----0---|
D-----0--0|----0--0|----0--0|-----0-0|
D-----0--0|----0--0|----0--0|------0-|
G-0-0-----|0-0-----|0-0-----|0-0-----|
D---------|--------|--------|--------|
 
D---------|--------|--------|--------|
A-----1--1|----1---|----0--0|----0--0|
D-----0--0|----0---|----0--0|----0--0|
D-----0--0|----0---|----0--0|----0--0|
G-0-0-----|0-0--0h2|--------|--------|
D---------|--------|0-0-----|0-0-----|

D---------|--------|--------|--------|
A-----0--0|----0---|----0--0|----0--0|
D-----0--0|----0---|----5--5|----4--4|
D-----0--0|----0---|----0--0|----0--0|
G---------|-----0h2|--------|--------|
D-1-1-----|1-1-----|0-0-----|0-0-----|


[Theme one:-]


||  D---------|--------|--------|--------|
||  A-----1--1|----1---|----0--0|----0--0|
||. D-----0--0|----0---|----0--0|----0--0|
||. D-----0--0|----0---|----0--0|----0--0|
||  G-0-0-----|0-0--0h2|--------|--------|
||  D---------|--------|0-0-----|0-0-----|

    D---------|--------|--------|--------|  ||
    A-----0--0|----0---|----0--0|----0--0|  ||
    D-----0--0|----0---|----5--5|----4--4| .||
    D-----0--0|----0---|----0--0|----0--0| .||
    G---------|-----0h2|--------|--------|  ||
    D-1-1-----|1-1-----|0-0-----|0-0-----|  ||

D---------|--------|--------|--------|
A-----0--0|----0---|----0--0|----0--0|
D-----0--0|----0---|----5--5|----4--4|
D-----0--0|----0---|----0--0|----0--0|
G---------|-----0h2|--------|--------|
D-1-1-----|1-1-----|0-0-----|0-0-----|


         


[theme two:-]

D---------|--------|--------|--------|
A-----2--2|----0--0|----2--2|----3--3|
D-----0--0|----0--0|----0--0|----0--0|
D-----0--0|----0--0|----0--0|----0--0|
G-0-0-----|0-0-----|0-0-----|0-0-----|
D---------|--------|--------|--------|

D---------|--------|--------|--------|
A-----1--1|----1--1|----1--1|----0h1-|
D-----0--0|----0--0|----0--0|----0-0-|
D-----0--0|----0--0|----0--0|----0-0-|
G---------|--------|--------|--------|
D-3-3-----|3-3-----|3-2-----|2-------






  
D---------|--------|--------|--------|
A-----0--0|----0---|----0--0|----0--0|
D-----0--0|----0---|----5--5|----4--4|
D-----0--0|----0---|----0--0|----0--0|
G---------|-----0h2|--------|--------|
D-1-1-----|1-1-----|0-0-----|0-0-----|



[I end like this:-]

D---------|--------|--------|--------|
A-----2---|----0---|----3---|----2---|
D-----0---|----0---|----0---|----0---|
D-----0---|----0---|----0---|----0---|
G-0-0-----|0-------|0-------|0-------|
D---------|--------|--------|--------|



Mike Healey
michael.healey@balliol.oxford.ac.uk

===========
  Mike H.
===========

michael.healey@balliol.oxford.ac.uk

From alt.guitar.tab Thu Dec  1 09:58:05 1994
From: michael.healey@balliol.ox.ac.uk (Mike)
Date: 30 Nov 1994 16:16:07 -0600
Newsgroups: alt.guitar.tab,rec.music.makers.guitar.tablature
Subject: TAB: Things Behind The Sun -- Nick Drake (Corrected)

Things behind the sun - Nick Drake
Album - Pink moon

I think this version of this song is more accurate than the one 
recently posted -- the words are shamelessly plagiarised though...

Altered Tuning: DGDDAD
Capo 6th fret.

Intro:-                 

D---------|--------|--------|--------|
A-----0--0|----0--0|----0--0|----0---|
D-----0--0|----0--0|----0--0|-----0-0|
D-----0--0|----0--0|----0--0|------0-|
G-0-0-----|0-0-----|0-0-----|0-0-----|
D---------|--------|--------|--------|
 
D---------|--------|--------|--------|
A-----1--1|----1---|----0--0|----0--0|
D-----0--0|----0---|----0--0|----0--0|
D-----0--0|----0---|----0--0|----0--0|
G-0-0-----|0-0--0h2|--------|--------|
D---------|--------|0-0-----|0-0-----|
[ Tab from: http://www.guitartabs.cc/tabs/d/drake_nick/things_behind_the_sun_tab_ver_2.html ]
D---------|--------|--------|--------|
A-----0--0|----0---|----0--0|----0--0|
D-----0--0|----0---|----5--5|----4--4|
D-----0--0|----0---|----0--0|----0--0|
G---------|-----0h2|--------|--------|
D-1-1-----|1-1-----|0-0-----|0-0-----|


[Theme one:-]


||  D---------|--------|--------|--------|
||  A-----1--1|----1---|----0--0|----0--0|
||. D-----0--0|----0---|----0--0|----0--0|
||. D-----0--0|----0---|----0--0|----0--0|
||  G-0-0-----|0-0--0h2|--------|--------|
||  D---------|--------|0-0-----|0-0-----|

    D---------|--------|--------|--------|  ||
    A-----0--0|----0---|----0--0|----0--0|  ||
    D-----0--0|----0---|----5--5|----4--4| .||
    D-----0--0|----0---|----0--0|----0--0| .||
    G---------|-----0h2|--------|--------|  ||
    D-1-1-----|1-1-----|0-0-----|0-0-----|  ||

D---------|--------|--------|--------|
A-----0--0|----0---|----0--0|----0--0|
D-----0--0|----0---|----5--5|----4--4|
D-----0--0|----0---|----0--0|----0--0|
G---------|-----0h2|--------|--------|
D-1-1-----|1-1-----|0-0-----|0-0-----|


         

[theme two:-]

D---------|--------|--------|--------|
A-----2--2|----0--0|----2--2|----3--3|
D-----0--0|----0--0|----0--0|----0--0|
D-----0--0|----0--0|----0--0|----0--0|
G-0-0-----|0-0-----|0-0-----|0-0-----|
D---------|--------|--------|--------|

D---------|--------|--------|--------|
A-----1--1|----1--1|----1--1|----0h1-|
D-----0--0|----0--0|----0--0|----0-0-|
D-----0--0|----0--0|----0--0|----0-0-|
G---------|--------|--------|--------|
D-3-3-----|3-3-----|3-2-----|2-------|




  
D---------|--------|--------|--------|
A-----0--0|----0---|----0--0|----0--0|
D-----0--0|----0---|----5--5|----4--4|
D-----0--0|----0---|----0--0|----0--0|
G---------|-----0h2|--------|--------|
D-1-1-----|1-1-----|0-0-----|0-0-----|





[I end like this:-]

D---------|--------|--------|--------|
A-----2---|----0---|----3---|----2---|
D-----0---|----0---|----0---|----0---|
D-----0---|----0---|----0---|----0---|
G-0-0-----|0-------|0-------|0-------|
D---------|--------|--------|--------|



Mike Healey
michael.healey@balliol.oxford.ac.uk

===========
  Mike H.
===========

michael.healey@balliol.oxford.ac.uk



From: bike@xs4all.nl (bike)

Things behind the sun - Nick Drake
Album - Pink moon

I have figured out how I can play that song and not what Nick's doing. First
of all, I'm not so good at playing, and second, I can't hear it exact enough.
Basically this means that I got the chords right but the picking wrong. (He's
playing so many more notes). Any suggestions welcome.

Intro and first theme:

E ----1---|----1---|----0---|----0---|----0---|----0---|----0---|----0---|
B ----3---|----3---|----2---|----2---|----1---|----1---|----2---|----2---|
G ----2---|----2---|----2---|----2---|----0---|----0---|----2---|----2---|
D 0-0-----|0-0--0h2|----0---|--------|--------|--------|--------|--------|
A --------|--------|0-0-----|0-0---0-|1-1-----|1-1--1h3|0-0-----|0-0-----|
E --------|--------|--------|--------|--------|--------|--------|--------|

  Dm       Dm        A        A        C/Bb     C/Bb      A        A

Dm     

theme two:

E ----2---|----3----|----2---|--3-----|----0---|----0---|----0---|----0---|
B ----3---|----3----|----3---|--3-----|----1---|----1---|----2---|----2---|
G ----2---|----2----|----2---|--2-----|----0---|----0---|----0---|----0---|
D 0-0-----|0-0------|0-0-----|0---0---|--------|--------|--------|--------|
A --------|---------|--------|------0-|1-1-----|1-1--1h3|0-0-----|0-0-----|
E --------|---------|--------|--------|--------|--------|--------|--------|
  
  D        Dsus4     D        Dsus4    C/Bb     C/Bb     A        A



I end like this:
 
E ----2---|----3----|----7---|5-------|--------|--------|--------|--------|
B ----3---|----3----|----8---|7-------|--------|--------|--------|--------|
G ----2---|----2----|----7---|7-------|--------|--------|--------|--------|
D 0-0-----|0-0------|0-0-0---|0-------|--------|--------|--------|--------|
A --------|---------|--------|--------|--------|--------|--------|--------|
E --------|---------|--------|--------|--------|--------|--------|--------|

  D        Dsus4     G/D      A

Nick doesn't go that many frets up, but I like what I do so.. I haven't 
figured what he does.

Any comments, suggestions can be mailed to : bike@hacktic.nl or posted in
this newsgroup.
Comments