Drake Nick - Road Chords & Tabs

 

Road Chords & Tabs

Drake Nick Chords & Tabs

Version: 2 Type: Tab 0 ratings
1 star 2 stars 3 stars 4 stars 5 stars
comments

Road Tab

   
#----------------------------------PLEASE NOTE---------------------------------#
#This file is the author's own work and represents their interpretation of the #
#song. You may only use this file for private study, scholarship, or research. #
#------------------------------------------------------------------------------##
From: Mike 


ROAD -- Nick Drake
====
(from Pink Moon)

Tuning: DGDDAD  capo: 4th fret

Structure: I, I, II, I, I, Verse 1, II, I, I, III,
           Verse 2, II (as if 2nd time through), I, end.


  FIG. I:-
  ========

D:-------------------0----------------------------|
A:----------0-----------0--------0----------0-----|
D:-------0-----0-----------0--------0----------0--|
D:----0-----------0-------------------------------|
G:-5--------------------------4--------0h2--------|
D:------------------------------------------------|


D:----------------------0--------------------------|
A:----0--------0-----------0-----0--------0--------|
D:-------0--------0-----------------0--------0-----|
D:----------------------------------------------0--|
G:-0--------0--------0-----------------------------|
D:----------------------------4--------0-----------|



   FIG. II:-
   =========

D:----------------------------------------------------|
A:----------------------------------------------------|
D:----------------------------------------------------|
D:-------0-----0--------0-----0-----0-----0-----0-----|
G:----------0--------2-----0-----------------2--------|
D:-0--2-----------0--------------2-----0-----------0--|


 _________
 |1st time
D:-----------------------------------------------|
A:-----------------------------------------------|
D:-----------------------------------------------|
D:----0-----0--------0--------0--------0---------|
G:-------0--------2-----0--------0--------2------|
D:-2-----------0-----------2--------0--------0---|
                                      {triplet}
[ Tab from: http://www.guitartabs.cc/tabs/d/drake_nick/road_tab_ver_2.html ]
 _________
 |2nd time
D:----------------------------------------|
A:----------------------------------------|
D:----------------------------------------|
D:-------0-----0--------0-----0-----0-----|
G:----------0--------2-----0--------------|
D:-0--2-----------0--------------2-----0--|



   VERSE (part a):-
   ================

D:------------------------------------------------|
A:----------0-------------------------------------|
D:-------0-----0-----------0--------0----------0--|
D:----0-----------0-----0--------0----------0-----|
G:-5-----------------5--------4--------0h2--------|
D:------------------------------------------------|


   VERSE (part b):-
   ================

D:--------------------------------------------------|
A:----------0---------------------------------------|
D:-------0-----0-----------0--------0--------0------|
D:----0-----------0-----0--------0--------0-----0---|
G:-0-----------------0------------------------------|
D:----------------------------4--------0------------|



   FIG III:-
   =========

D:-------------------0-----|-------------------0-----|
A:----------------------0--|----------------------0--|
D:----------------0--------|----------------0--------|
D:-------0-----0-----------|-------0-----0-----------|
G:-0--2-----5--------------|-0--2-----5--------------|
D:-------------------------|-------------------------|



D:-------------------0------------------------------|
A:----------0-----------0---------------------------|
D:-------0-----0-----------0--------0--------0------|
D:----0-----------0--------------0--------0-----0---|
G:-0------------------------------------------------|
D:----------------------------4--------0------------|



ENDING CHORD:-

D:---0---|
A:---0---|
D:---0---|
D:---0---|
G:---2---|
D:---0---|






NOTES:-

I've not bothered to type in the timing of the notes, but it's very
easy to figure out just by listening to the CD; at least you'll know
where to put your fingers...

There are places in the song where there are minor variations, but I
think it's nicer if you just put these in for yourself. Whatever Nick
Drake was at the time of Pink Moon, he certainly wasn't a
perfectionist
in terms of rigid guitar playing. Keep it sounding scruffy and loose
and
you won't go far wrong.


This version by Mike .

===========
  Mike H.
===========

michael.healey@balliol.oxford.ac.uk
Comments