Drake Nick - Place To Be Chords & Tabs

 

Place To Be Chords & Tabs

Drake Nick Chords & Tabs

Version: 1 Type: Tab 0 ratings
1 star 2 stars 3 stars 4 stars 5 stars
comments

Place To Be Tab

   
Nick Drake - Place to be

tuning: D A D G B e

Chords (Listen to the song and find the rhythm) 

E|--2-----2-----2-----2-------2-------2----|
B|--3-----3-----3-----3-------0-------0----|
G|--0^2---2-----0^2---2-------0-------0----|
D|--0-----0^4---0-----0^4-----0^2-----2----|
A|--0-----0-----0-----0-------0^2-----2----|
D|--0-----0-----0-----0-------0^2-----0^2--|

[ Tab from: http://www.guitartabs.cc/tabs/d/drake_nick/place_to_be_tab.html ]
E|--2-----2-----2-----4-----2----------|
B|--2-----2-----2-----4-----0----------|
G|--2-----4-----2-----4-----0----------|
D|--4-----2-----4-----2-----2----------|
A|--4-----4-----4-----4-----2----------|
D|--4-----4-----4-----4-----2---(0^2)--|

Instrumental:

E|--2-----0/2----------------|
B|--3-----0---------------0--|
G|--0^2---2/4---4/2---2---2--| x 2
D|--0-----0-----4/2---2---0--|
A|--------------0-----0---2--|
D|------------------------0--|


E|--0------------------------|
B|--2-------0------------3---|
G|--2-------0---2--------2---|
D|--0-------0---2---0----0---|
A|--------------0---0----0---|
D|------------------0----0---|


That's it
tabbed by Elad Matari
eladmat@walla.co.il
Comments