Drake Nick - Fly Chords & Tabs

 

Fly Chords & Tabs

Drake Nick Chords & Tabs

Version: 2 Type: Tab 0 ratings
1 star 2 stars 3 stars 4 stars 5 stars
comments

Fly Tab

   
#----------------------------------PLEASE NOTE---------------------------------#
#This file is the author's own work and represents their interpretation of the #
#song. You may only use this file for private study, scholarship, or research. #
#------------------------------------------------------------------------------##
From: Harlan L Thompson 

FLY- Nick Drake

TUNING: D A D G D G (capo 1st fret) or C G C F C F (capo 3rd fret)
[ Tab from: http://www.guitartabs.cc/tabs/d/drake_nick/fly_tab_ver_2.html ]
PART 1:
G ----------------------------------------0---0---0---0---0---0---0---0------
D ------0---0---0---0---0---0---0---0---0-0---0---0---0---0---0---0---0------
G ----0---0---0---0---0---0---0---0---0-----2---2---2---2---2---2---2---2----
D (0)-9---7---5---4---2---0-------------------0-------0-------0-------0------
A ----------------------------3---2---0--------------------------------------
D ----------------------------------------0-------0-------0-------0----------

PART 2:
G ---------0-------0-------0-------0--------------------0-------0------------
D -----4-------4-------4-------4--------------------4-------4----------------
G -------0---0---0---0---0---0---0---0---(repeat------2---2---2---2--(repeat-
D ---------0-------0-------0-------0------twice,--------0-------0-----three--
A -----3-------3-------2-------2----------then->)---------------------times)-
D -(5)----------------------------------------------0-------0----------------

INTRO:
Play part 1 with opening note. Play second time without opening note, do 
the 6 and 4 string alternate bass part twice as long
Comments